Cifra Club

Al Cantar

Platero Y Tu

Cifra: Principal (violão e guitarra)
tom: C
(intro)

     C                 G              Am
E|---0-----------------3-----------3--0-----------------|
B|---1-----------------3--------3--3--1--0--1-----------|
G|---0--------0--------4--4-----4-----2--------2--------|
D|---2--0--2-----2-----5-----5--------2-----------2-----|
A|---3--------------3--5-----------------------------3--|
E|------------------------------------------------------|

     F              C
E|---1-----------1--0----------------------3-----------1----|
B|---1--------1--1--1----------------------3-----------1----|
G|---2--2-----2-----0--------0----------4-----4-----2-----2-|
D|---3-----3--------2--0--2-----2-------5-----5-----3-----3-|
A|---3--------------3--------------3--5----------3----------|
E|---1------------------------------------------------------|

     C
E|---0----------------------------|
B|---1----------------------------|
G|---0----------------------------|
D|---2-----0--2--0--0--2--0-------|
A|---3--3--------------------3--5-|
E|--------------------------------|

Sol (Justo despues de la introducción

C              G               Am                F
Al cantar me puedo olvidar de todos los malos momentos,
C         G       F      C
convertir en virtud defectos.
              G           Am                F
Desterrar la vulgaridad aunque solo sea un momento,
C         G       F      C
y sentir,que no estamos muertos.

E|------------|
B|------------|
G|------------|
D|------0--2--|
A|---3--------|
E|------------|

F                   G
No es placer, es necesidad,
     Am      G              F
es viento, es lluvia y es fuego.
 C         G    F     C
Derramar todos mis secretos.

C              G
Y busqué en el fondo del mar,
     Am                 F
en las montañas y en el cielo,
C              G        F        C
la manera de hacer realidad mis sueños.
C           G              Am      G      F
Encontré en el corazón el mapa de los sentimientos,
C          G      F      C
ya lo ves, no estaba tan lejos.

E|------------|
B|------------|
G|------------|
D|------0--2--|
A|---3--------|
E|------------|

F                G
No es placer, es necesidad,
     Am        G           F
es viento, es lluvia y es fuego.
 C      G     F     C
Derramar todos mis secretos.

E|------------|
B|------------|
G|------------|
D|------0--2--|
A|---3--------|
E|------------|

F            G
Esnifar los rayos del Sol,
  Am     G         F
y descongelar el cerebro;
C          G        F      C
y sentir, que no estamos muertos.

C         G       F      C
Y sentir, que no estamos muertos,
Am        G       F      C
y sentir, que no estamos muertos,
Am        G       F      C
y sentir, que no estamos muertos,
Am        G       F      C
y sentir, que no estamos muertos...
00:00 / 00:00
Outros vídeos desta música
Repetir
Outros vídeos desta música
Compositor não encontrado.
Colaboração e revisão:
  • Jose Tello
  • vinicius terranova
3.179 exibições
    • ½ Tom
    • A
    • Bb
    • B
    • C
    • Db
    • D
    • Eb
    • E
    • F
    • F#
    • G
    • Ab
  • Adicionar à lista

    0 comentários

    Ver todos os comentários

    Entre para oCifra Club PRO

    Tenha acesso a benefícios exclusivos no App e no Site

    • Chega de anúncios

    • Prioridade de compra em lançamentos

    • Mais recursos no app do Afinador

    • Atendimento Prioritário

    • Descontos nos produtos Cifra Club

    • Ajude a produzir mais conteúdo

    00:00 / 00:00

    Cifra Club Pro

    Aproveite o Cifra Club com benefícios exclusivos e sem anúncios
    Cifra Club Pro
    Aproveite o Cifra Club com benefícios exclusivos e sem anúncios
    OK