Cifra Club

La maté porque era mía

Platero Y Tu

Cifra: Principal (violão e guitarra)
Selo Cifra Club: esta cifra foi revisada para atender aos critérios oficiais da nossa Equipe de Qualidade.
tom: E
    E (dejando sonar)  A , B -C  A          D# , E -F  D# 
E|-------------| ---------------      ---------------
B|-------------| ---------------      ---------------
G|-------------| ---------------      ---------------
D|--2-5-4-5-2--| x4  --7-10-9-10-7--  x4  --13-16-14-13--
A|-------------| ---------------      ---------------
E|-------------| ---------------      ---------------

A base d oirla ya vereis cuando se tocan los acordes y el punteo
y aora viene lo q llamaremos de aqui en adelante "el punteo wapo"


E|---------------| -----------
B|---------------| -----------
G|---------------| -----------
D|--2-2-2-2-4-5--| x3  --2-2-4-5--  x2
A|---------------| -----------
E|---------------| -----------


E|----------------| ------------
B|----------------| ------------
G|----------------| ------------
D|--7-7-7-7-9-10--| x3  --7-7-9-10--  x2
A|----------------| ------------
E|----------------| ------------


E|------------------| ---------------
B|------------------| ---------------
G|------------------| ---------------
D|--13-13-13-14-16--| x3  --13-13-14-16--  x2
A|------------------| ---------------
E|------------------| ---------------


E|-----------------|
B|-----------------|
G|-----------------|
D|--14-10-9-7-5-2--| al final es un Mi que es el primer Mi de
A|--------------2--| la parte q canta, la parte siguiente se
E|--------------0--| con kintas (las 3 ultimas cuerdas)
                      A S GRAVES COÑO!!!

Por cierto el La y el Re# los hago todos siguiendo la 6a cuerda:
No se como kedará con los acordes naturales, kien tenga tiempo
q lo pruebe i m cuente q tal xD   weno ahi va la canción


    E                      E 
    Me ha cogido la madera, a mi novia yo he matado,
    A                      A 
    no saquen fotografías, tengo el cuerpo ensangrentado.
    D#                          D# 
    Yo era un chico muy decente, ella era una prostituta,
    D#        D#          D#      D#    D#     D# 
    ya no usará la cama, ahora duerme en una tumba.


Pues weno, aora viene iwal como 'el punteo wapo'


     E                          E 
     Me han llevado al calabozo y me han dado unas hostias,
     A                          A 
     me han dejado el cuerpo roto, mi cerebro no funciona,
     D#                         D# 
     y ahora mismo nada entiendo, solo veo periodistas,
     D#           D#         D#    D#    D#     D# 
     que me dan algún dinero por salir en sus revistas.


Ahora un solo diferente q paso de sacar xD
Luego el punteo inicial y luego el punteo wapo,
vamos q se repite la intro


     E                    E 
     Vaya jeta, vaya jeta, mucho morro, mucho morro,
     A                      A 
     yo no quiero tu portada, periodista escandaloso,
     D#                          D# 
     no quiero que con su sangre puedas escribir mentiras,
     D#           D#        D#     D#      D#      D# 
     la maté porque la amaba, la maté porque era mía.


Pa finalizar otra vez el punteo wapo y termina aciendo algo
parecido a esto

E|--------------------|
B|--1s5-3-1-1s5-------|
G|---------------4*---| aqui le pegais un vibrato a la G4 y sin
D|--------------------| dejar de acerlo (en la cancion es un
A|--------------------| bajo pero nos apañamos tocando la 6º
E|------------------0-| cuerda al aire.


EE RDA!!! JODER!!! espero q la valoreis bien, la primera estrofa
la abia puesto con rayitas tambien pero no se porq se a borrado
y paso de volver a ponerlo asi q todo con acordes y ya esta.
Outros vídeos desta música
    39 exibições
      • ½ Tom
      • A
      • Bb
      • B
      • C
      • Db
      • D
      • Eb
      • E
      • F
      • F#
      • G
      • Ab
    • Adicionar à lista

    Afinação da cifra

    Afinador online

      0 comentários

      Ver todos os comentários

      Entre para o Cifra Club PRO

      Tenha acesso a benefícios exclusivos no App e no Site

      • Chega de anúncios

      • Badges exclusivas

      • Mais recursos no app do Afinador

      • Atendimento Prioritário

      • Aumente seu limite de lista

      • Ajude a produzir mais conteúdo

      Cifra Club Pro

      Aproveite o Cifra Club com benefícios exclusivos e sem anúncios
      Cifra Club Pro
      Aproveite o Cifra Club com benefícios exclusivos e sem anúncios
      Ops (: Contenido disponible sólo en portugués.
      OK