Cifra Club

Si la tocas otra vez

Platero Y Tu

Cifra: Principal (violão e guitarra)
Selo Cifra Club: esta cifra foi revisada para atender aos critérios oficiais da nossa Equipe de Qualidade.
tom: D
[Intro] D  D4  D  D4
        D  D4  D  A

[Tab - Intro]

Riff 1 (x3)
E|--------------------------|
B|-------------8-7----------|
G|----------7--7-7----------|
D|----------7---------------|
A|------4-5-5---------------|
E|--5-7---------------------|

Riff 2
E|--------------------------|
B|--------------------------|
G|--5---5-5-----------------|
D|--5-7-5-5-----------------|
A|--------------------------|
E|--------------------------|

Riff 1 (x3)

Riff 3
E|--------------------------|
B|--------------------------|
G|--------------------------|
D|--------5-4---------------|
A|------4-------5-----------|
E|--5-7-------7-------------|


D5     A5
Fuiste tú
       F#5               G5
Rock & ROll Callejero bebiendo blues
D5   A5
Para mí
      F#5                   G5
El primero en decir lo que yo sentí
D5  A5
Es igual
         F#5                  G5
Ahora he dado la vuelta y puedo cantar
D5     A5
Y explicar
       F#5                G5
Que tu vieja guitarra me hace soñar
  F#5
Y tú
   G5            F#5
Tú puedes seguir así
  G5                A5
Y debes ser siempre así


Riff 1 (x3)

[Riff 2]

Riff 1 (x3)

[Riff 4]

E|--------------------------|
B|--------------------------|
G|--------------------------|
D|--7--7--5--5--4--4--2--2--|
A|--------------------------|
E|--------------------------|

D5      A5
Dónde estás
     F#5                 G5
Es difícil seguir sin mirar atrás
D5      A5
Y he pensao'
           F#5                 G5
Que aunque nada es igual nada ha cambiao'
D5     A5
Sigue así
       F#5              G5
Con un micro debajo de tu nariz
D5  A5
Es igual
         F#5                  G5
Ahora he dado la vuelta y puedo cantar
  G#5
Y tú
   G5            F#5
Tú puedes seguir así
  G5                A5
Y debes ser siempre así

           D5         A5
     Si la tocas otra vez
           B5
     Te prometo que esta noche yo
        G5
     Nunca la olvidaré
           D5         A5
     Si la tocas otra vez
          B5
     Me calientas la cabeza y
           G5
     No pudo parar
           D5         A5
     Si la tocas otra vez
           B5
     Te prometo que esta noche yo
        G5
     Nunca la olvidaré
           D5         A5
     Si la tocas otra vez
          B5
     Me calientas la cabeza y
           G5
     No puedo parar los pies

D
El tren ya no pasa
       A
Y tú sigues ahí
Bm                    G
Bebiendo y fumando en ese Madrid
   D                      A
Nunca cambiaste tu manera de vivir
   Bm
Me contaste tu vida
         G                  A
¡Que más puedo yo pedirte a tí!

[Riff 5]

E|--------------------------|
B|--------------------------|
G|--------------------------|
D|--7--5--4--2--------------|
A|--------------------------|
E|--------------------------|


           D5         A5
     Si la tocas otra vez
           B5
     Te prometo que esta noche yo
        G5
     Nunca la olvidaré
           D5         A5
     Si la tocas otra vez
          B5
     Me calientas la cabeza y
           G5
     No pudo parar
           D5         A5
     Si la tocas otra vez
           B5
     Te prometo que esta noche yo
        G5
     Nunca la olvidaré
           D5         A5
     Si la tocas otra vez
          B5
     Me calientas la cabeza y
           G5
     No puedo parar ¡no puedo!
Outros vídeos desta música
    169 exibições
      • ½ Tom
      • A
      • Bb
      • B
      • C
      • Db
      • D
      • Eb
      • E
      • F
      • F#
      • G
      • Ab
    • Adicionar à lista

    Afinação da cifra

    Afinador online

      0 comentários

      Ver todos os comentários

      Entre para o Cifra Club PRO

      Tenha acesso a benefícios exclusivos no App e no Site

      • Chega de anúncios

      • Badges exclusivas

      • Mais recursos no app do Afinador

      • Atendimento Prioritário

      • Aumente seu limite de lista

      • Ajude a produzir mais conteúdo

      Cifra Club Pro

      Aproveite o Cifra Club com benefícios exclusivos e sem anúncios
      Cifra Club Pro
      Aproveite o Cifra Club com benefícios exclusivos e sem anúncios
      Ops (: Contenido disponible sólo en portugués.
      OK