Cifra Club

Si tú te vas

Platero Y Tu

Cifra: Principal (violão e guitarra)
tom: C#m
E|---8--10--11--12--8--10--8------8--12--8--10--8------8--|
B|----------------------------10-------------------10-----|
G|--------------------------------------------------------|
D|--------------------------------------------------------|
A|--------------------------------------------------------|
E|--------------------------------------------------------|

E|---11--8--10--8------8--11--11--10--8------8--12--8--10--|
B|-----------------10--------------------10----------------|
G|---------------------------------------------------------|
D|---------------------------------------------------------|
A|---------------------------------------------------------|
E|---------------------------------------------------------|

E|--8-----8--11--11--11--11--11--8--10--8---9--8--7--5--5--|
B|----10---------------------------------------------------|
G|---------------------------------------------------------|
D|---------------------------------------------------------|
A|---------------------------------------------------------|
E|---------------------------------------------------------|

Este punteo se repite 4 veces y a la quinta empieza a disminuir
de volumen..
La otra guitarra acompaña con Do5, Mi5, Fa5 y Fa#5, repitiendose
constantemente.
00:00 / 00:00
Outros vídeos desta música
Repetir
Outros vídeos desta música
Composição de Fito Cabrales e Iñaki Antón
25 exibições
    • ½ Tom
    • Am
    • Bbm
    • Bm
    • Cm
    • C#m
    • Dm
    • Ebm
    • Em
    • Fm
    • F#m
    • Gm
    • G#m
  • Adicionar à lista

    0 comentários

    Ver todos os comentários

    Entre para oCifra Club PRO

    Tenha acesso a benefícios exclusivos no App e no Site

    • Chega de anúncios

    • Prioridade de compra em lançamentos

    • Mais recursos no app do Afinador

    • Atendimento Prioritário

    • Descontos nos produtos Cifra Club

    • Ajude a produzir mais conteúdo

    00:00 / 00:00

    Cifra Club Pro

    Aproveite o Cifra Club com benefícios exclusivos e sem anúncios
    Cifra Club Pro
    Aproveite o Cifra Club com benefícios exclusivos e sem anúncios
    OK