Cifra Club

Novo Dia

Ponto De Equilibrio

Cifra: Principal (violão e guitarra)
Selo Cifra Club: esta cifra foi revisada para atender aos critérios oficiais da nossa Equipe de Qualidade.
tom: F#
[Intro]  Fm  D#m  Fm  D#m

E|------8-----------8-8-----------8---6---------------------------|
B|-----------------------------------7----------------------------|
G|-/10----10---/10------10---/10----8-----------------------------|
D|----------------------------------------------------------------|
A|----------------------------------------------------------------|
E|----------------------------------------------------------------|

E|------8-8------------8-8-8--------------------------------------|
B|----------------------------------------------------------------|
G|-/10------10----/10--------10-----------------------------------|
D|----------------------------------------------------------------|
A|----------------------------------------------------------------|
E|----------------------------------------------------------------|

E|------8-7----6--------------------------------------------------|
B|------------7---------------------------------------------------|
G|-/10-------8----------------------------------------------------|
D|----------------------------------------------------------------|
A|----------------------------------------------------------------|
E|----------------------------------------------------------------|

       Fm                                      D#m
Um dia, outro dia, lá vem mais um dia, eu não posso adiar
           Fm                                   D#m
Pois no dia a dia este é o meu caminho, eu não quero desviar
    Fm                                   D#m
De vez em quando, de vez em quando esqueço, iéi-iéi-iéi
    Fm                                   D#m
De vez em quando, de vez em quando esqueço, uóu-uóu-uóu

                   A#m                    D#m
A importância de lutar, vivendo sempre o amor
                      A#m                          D#m
Agradecendo a este dia que brilha, presente igual não há

        Fm
Não há, não, não há, não, não há, não, não há
       D#m
Não há terror para quem sabe amar
        Fm
Não há, não, não há, não, não há, não, não há
        D#m                                 Fm
Não há terror pra quem conectar a força de Deus
                D#m                               Fm
É pra quem sabe amar e se conectar com a força de Deus
                D#m
É pra quem sabe amar... (Fm  D#m)

[Solo]
E|-8---11---13----------------------------------------------------|
B|---------------9p8-9--------------------------------------------|
G|---------------------10-----------------------------------------|
D|----------------------------------------------------------------|
A|----------------------------------------------------------------|
E|----------------------------------------------------------------|

E|-13---16---18---------------------------------------------------|
B|----------------9p8-9--9/11--9----------------------------------|
G|----------------------------------------------------------------|
D|----------------------------------------------------------------|
A|----------------------------------------------------------------|
E|----------------------------------------------------------------|

3 parte ( repetição da primeira )

E|-8---11---13----------------------------------------------------|
B|---------------9p8-9--------------------------------------------|
G|---------------------10-----------------------------------------|
D|----------------------------------------------------------------|
A|----------------------------------------------------------------|
E|----------------------------------------------------------------|

E|9--6--9/11---8/6---5h6------------------------------------------|
B|----------------------------------------------------------------|
G|----------------------------------------------------------------|
D|----------------------------------------------------------------|
A|----------------------------------------------------------------|
E|----------------------------------------------------------------|
     Fm         D#m
Para ser não é só parecer
     Fm              D#m                             Fm
Para ser, iê, muito mais do que só aparentar e aparecer
      D#m
íéi, íéi

         Fm
Vamos nos aceitar, viver no bem estar
         D#m
Vamos nos redimir, reconciliar
         Fm
Vamos nos aceitar, viver no bem estar
        D#m
Vamos nos redimir, nos equilibrar
      Fm        D#m
Dá pra ser muito mais, vamos ser
      Fm        D#m
Dá pra ser, muito mais, vamos ser
        Fm
Vamos ser

( D#m  Fm  D#m )

     Fm                            D#m
Hum… Give Thanks for this bright sunny day, hum
Fm                        D#m
Gift like this, there is no other, oh yes
Fm                          D#m
There is no fear in those who love Jah (Jah Jah)
Fm                              D#m
To be a sun of the Almighty is not just an outer appearance

( A#m  D#m )
No-no-no… Oh yê… Na-na-na... (Jah Jah)

[Solo]

E|---13-13-13----13-13-13--11-11-11--9-9-9--8h9p8--9-11--9--9-----|
B|-------------------------------------------------------11-11----|
G|10----------10--------------------------------------------------|
D|----------------------------------------------------------------|
A|----------------------------------------------------------------|
E|----------------------------------------------------------------|


E|---13---16-15---13h14p13---11----11/13--------------------------|
B|13----------------------------13--------------------------------|
G|----------------------------------------------------------------|
D|----------------------------------------------------------------|
A|----------------------------------------------------------------|
E|----------------------------------------------------------------|

E|-----11---14/13--11h13p11---12/14-------------------------------|
B|9/11------------------------12/14-------------------------------|
G|----------------------------------------------------------------|
D|----------------------------------------------------------------|
A|----------------------------------------------------------------|
E|----------------------------------------------------------------|

E|13--------------------------------------------------------------|
B|---13------------9--11--11h12p11--9----9--11--11h12p11--9--11v--|
G|------13--10--10--------------------10--------------------------|
D|----------------------------------------------------------------|
A|----------------------------------------------------------------|
E|----------------------------------------------------------------|

E|-------9/11--14-13-11-------------------------------------------|
B|-14/11----------------------------------------------------------|
G|----------------------------------------------------------------|
D|----------------------------------------------------------------|
A|----------------------------------------------------------------|
E|----------------------------------------------------------------|

E|----11-12-13-----11-12-13-----13-12-11---13-12-11-----11-12-13--|
B|----------------------------------------------------------------|
G|8/10--------8/10---------8/10---------------------8/10----------|
D|----------------------------------------------------------------|
A|----------------------------------------------------------------|
E|----------------------------------------------------------------|
Outros vídeos desta música
    225.955 exibições
      • ½ Tom
      • A
      • Bb
      • B
      • C
      • Db
      • D
      • Eb
      • E
      • F
      • F#
      • G
      • Ab
    • Adicionar à lista

    Afinação da cifra

    Afinador online

      0 comentários

      Ver todos os comentários

      Entre para o Cifra Club PRO

      Tenha acesso a benefícios exclusivos no App e no Site

      • Chega de anúncios

      • Badges exclusivas

      • Mais recursos no app do Afinador

      • Atendimento Prioritário

      • Aumente seu limite de lista

      • Ajude a produzir mais conteúdo

      Cifra Club Pro

      Aproveite o Cifra Club com benefícios exclusivos e sem anúncios
      Cifra Club Pro
      Aproveite o Cifra Club com benefícios exclusivos e sem anúncios
      Ops (: Contenido disponible sólo en portugués.
      OK