Cifra Club

Espiral

Porter

Cifra: Versão 2 (violão e guitarra)
tom: F#
Intro (Chelo):

E|--------|
B|--------|
G|--------|
D|----1---| x 2
A|-------1|
E|-2------|


En esta parte usen un delay limpio como efecto en la pedalera


E|--------------------------------------------------------------|
B|-7-7-7-6-6-6----7-7-7/9-9-9---6/7-7-7-------------------------|
G|--------------------------------------6-6-6---6/10-----6-6-6--|
D|--------------------------------------------------------------| x 2
A|--------------------------------------------------------------|
E|--------------------------------------------------------------|

Notas usadas:

 F#   D#m  A#m   C#     B

E|--2--|-6--|--1--|--4--|--2--|
B|--2--|-7--|--2--|--6--|--4--|
G|--3--|-8--|--3--|--6--|--4--|
D|--4--|-8--|--3--|--6--|--4--|
A|--4--|-6--|--1--|--4--|--2--|
E|--2--|-6--|--x--|--4--|--2--|

E|--Coro--|
                                                    Adorno 1

F#     D#m          A#m      (Adorno 1)          e|-1-----1---
  Ya estoy cayendo por un espiral                B|--2--2--2--
G|---3-----3-|
     F#      D#m         A#m    (Adorno 1)
  y ahora sí, ya te mandé clonar

 F#   D#m         A#m        (Adorno 1)
  Un grupo de doctores en Tijuana

 F#         D#m       A#m
  dijo  ven yo te puedo ayudar


    Ooh uh Ooh uh ...(Noten que solo cambia en esta la segunda cuerda)

E|-4-4-4-4-4-4-4-4-4-4-4-4-4-4-4-4-4-4-4-4-4--4-4-4--4-4-4--4--4--4-|
B|-6-6-6-4-4-4-6-6-6-4-4-4-6-6-6-6-6-6-4-4-4--6-6-6--4-4-4--6--6--6-|
G|-6-6-6-6-6-6-6-6-6-6-6-6-6-6-6-6-6-6-6-6-6--6-6-6--6-6-6--6--6--6-|
D|-6-6-6-6-6-6-6-6-6-6-6-6-6-6-6-6-6-6-6-6-6--6-6-6--6-6-6--6--6--6-|
A|-4-4-4-4-4-4-4-4-4-4-4-4-4-4-4-4-4-4-4-4-4--4-4-4--4-4-4--4--4--4-|
E|-4-4-4-4-4-4-4-4-4-4-4-4-4-4-4-4-4-4-4-4-4--4-4-4--4-4-4--4--4--4-|

 F#   D#m              A#m
  Perdón que ya no aguante tu partida

 F#     D#m         A#m
  pero es la perra soledad

 F#   D#m            A#m
  Sé bien que no pedí permiso

       F#          D#m          A#m
  pero sé muy bien  que tú lo harías también.


(Aqui hay de dos sopas o tocan los acordes o hechan
los pequeños riffs o ambos si traen segunda guitarra)

Pequeños riffs

E|------| e|---------------
B|------| B|---------------
G|----6-| G|---6-6----4-3-
D|------| x 4   D|-4------4------  x4
A|-6p9--| A|---------------
E|------| E|---------------


(Esta parte que sigue le meti de mas un acorde como lo
 hacen en vivo con Natalia Lafourcade)

D#m     C#        F#      C#        F#
    Y empiezo a pensar, empiezo a pensar

        C#        F#      D#m   C#     F#
    que ya no hay más, sin ti ya no hay más

       D#m   C#     F#       D#m   C#    F#
    sin ti ya no hay más, sin ti ya no hay más

       D#m   C#     F#
    sin ti ya no hay más.

E|------|
B|------|
G|-10~--|
D|------|
A|------|
E|------|



--Aqui se repite el coro sin los adornos: Ya estoy cayendo...---



  F#                   D#m                 A#m

E|-9--9--9--11-11-11---9--9--9--11-11-11---9--9--9--9--9--9-|
B|11-11-11--11-11-11--11-11-11--11-11-11--11-11-11-11-11-11-
G|----------------------------------------------------------|
D|----------------------------------------------------------| x 2
A|----------------------------------------------------------|
E|----------------------------------------------------------|


Ooh uh Ooh uh ..........

E|-4-4-4-4-4-4-4-4-4-4-4-4-4-4-4-4-4-4-4-4-4--4-4-4--4-4-4--4--4--4-|
B|-6-6-6-4-4-4-6-6-6-4-4-4-6-6-6-6-6-6-4-4-4--6-6-6--4-4-4--6--6--6-|
G|-6-6-6-6-6-6-6-6-6-6-6-6-6-6-6-6-6-6-6-6-6--6-6-6--6-6-6--6--6--6-|
D|-6-6-6-6-6-6-6-6-6-6-6-6-6-6-6-6-6-6-6-6-6--6-6-6--6-6-6--6--6--6-|
A|-4-4-4-4-4-4-4-4-4-4-4-4-4-4-4-4-4-4-4-4-4--4-4-4--4-4-4--4--4--4-|
E|-4-4-4-4-4-4-4-4-4-4-4-4-4-4-4-4-4-4-4-4-4--4-4-4--4-4-4--4--4--4-|

(En esta parte tenga cuidado con las pausas que hace Juan son
en algunas fraces)


D#m     C#        F#      C#        F#
    Y empiezo a pensar, empiezo a pensar

      C#            F#
    sin ti ya no hay más

        C#         F#        C#     F#      C#    F#
    sin ti ya no hay más, sin tiii no puedo ya

         C#         F#       C#   F#   A#m   D#m      B
    y empieza el proceso a acelerar




   F#   A#m   D#m    C#   B
   Ay   ay    ay     a  yay                        Adorno 2
E|------------------|
B|------------------|
   F#   A#m   D#m      (Adorno 2)       G|----11-13-13~-11--
   Ay   ay    ay     a  yay             D|-13---------------
A|------------------|
   F#   A#m   D#m    C#   B             E|------------------
   Ay   ay    ay     A  yay

   F#   A#m   D#m    C#   B
   Ay   ay    ay     A  yay

   F#   A#m   D#m      (Adorno 2)
   Ay   ay    ay     A  yay



F#  C#  D#m B C#   x 2  (Escuchen bien el rasgueo)



 F#    C#               A#m           B   C#
  Creo que ahora si me estoy estoy volviendo

  F#   C#    A#m     B   C#
  loco loco       casi loco

 F#    C#               A#m           B   C#
  Creo que ahora si me estoy estoy volviendo

 F#   C#    A#m    B  C#
  loco loco  loco  loco

 F#    C#               A#m           B   C#
  Creo que ahora si me estoy estoy volviendo

 F#   C#    A#m    B  F#
  loco loco loco   casi lo..
00:00 / 00:00
Outros vídeos desta música
Repetir
Outros vídeos desta música
Compositor não encontrado.
7 exibições
    • ½ Tom
    • A
    • Bb
    • B
    • C
    • Db
    • D
    • Eb
    • E
    • F
    • F#
    • G
    • Ab
  • Adicionar à lista

    0 comentários

    Ver todos os comentários

    Conseguiu tocar?

    0 Tocaram 0 Ainda não

    Grave um vídeo tocando Espiral e nos envie!

    Entre para oCifra Club PRO

    Tenha acesso a benefícios exclusivos no App e no Site

    • Chega de anúncios

    • Prioridade de compra em lançamentos

    • Mais recursos no app do Afinador

    • Atendimento Prioritário

    • Descontos nos produtos Cifra Club

    • Ajude a produzir mais conteúdo

    00:00 / 00:00

    Cifra Club Pro

    Aproveite o Cifra Club com benefícios exclusivos e sem anúncios
    Cifra Club Pro
    Aproveite o Cifra Club com benefícios exclusivos e sem anúncios
    OK