Cifra Club

Com Você Eu Topo (part. César Menotti & Fabiano)

Preto No Branco

Cifra: Principal (violão e guitarra)
tom: A
[Intro]

E|------------------------------------------|
B|-----3/5-3-2---2--------------------------|
G|---2---------4---/4-2---------------------|
D|-2----------------------------------------|
A|------------------------------------------|
E|------------------------------------------|

[Primeira Parte]

A9
E se for pra esquecer 
               F#m7
Tudo que aprendi

E escolher outro caminho 
        D9
Pra seguir
             A9
Com você eu topo

E aí
                                   F#m7
Se for pra decidir sobre a vida aqui

Se é pra chorar contigo 
                D9
Ou com você sorrir
             A9
Com você eu topo  
      D9    E
Tudo, enfim

[Refrão]

D9               E
  Mas o que é a vida 
        A9      E/G#  F#m7
Se não risos e lágri-mas
D9                 E        A9
  Tantos caminhos para decidir
D9                   E
  E a vida segue um novo rumo
 A9      E/G#  F#m7
Seja pra onde for
       D9       Bm
Com você, topo tudo
    E
Se Deus está, tá tudo bem

( A9  F#m7  D9  E )
( A9  F#m7  D9  E )

E|------------------------------------------|
B|-----3/5-3-2---2--------------------------|
G|---2---------4---/4-2---------------------|
D|-2----------------------------------------|
A|------------------------------------------|
E|------------------------------------------|

[Primeira Parte]

A9
E se for pra esquecer 
               F#m7
Tudo que aprendi

E escolher outro caminho 
        D9
Pra seguir
             A9
Com você eu topo


E aí
                                   F#m7
Se for pra decidir sobre a vida aqui

Se é pra chorar contigo 
                D9
Ou com você sorrir
             A9
Com você eu topo  
      D9    E
Tudo, enfim

[Refrão]

D9               E
  Mas o que é a vida 
        A9      E/G#  F#m7
Se não risos e lágri-mas
D9                 E        A9
  Tantos caminhos para decidir
D9                   E
  E a vida segue um novo rumo
 A9      E/G#  F#m7
Seja pra onde for
       D9       Bm
Com você, topo tudo
    E
Se Deus está, tá tudo bem

[Final] A9  F#m7  D9  E 
        A9  F#m7  D9  E 

E|------------------------------------------|
B|-----3/5-3-2---2--------------------------|
G|---2---------4---/4-2---------------------|
D|-2----------------------------------------|
A|------------------------------------------|
E|------------------------------------------|
00:00 / 00:00
Outros vídeos desta música
Repetir
Outros vídeos desta música
Composição de Clóvis Pinho / Estevão Queiroga
Colaboração e revisão:
  • Lucas Kappaun
6.464 exibições
    • ½ Tom
    • A
    • Bb
    • B
    • C
    • Db
    • D
    • Eb
    • E
    • F
    • F#
    • G
    • Ab
  • Adicionar à lista

    0 comentários

    Ver todos os comentários

    Entre para oCifra Club PRO

    Tenha acesso a benefícios exclusivos no App e no Site

    • Chega de anúncios

    • Prioridade de compra em lançamentos

    • Mais recursos no app do Afinador

    • Atendimento Prioritário

    • Descontos nos produtos Cifra Club

    • Ajude a produzir mais conteúdo

    00:00 / 00:00

    Cifra Club Pro

    Aproveite o Cifra Club com benefícios exclusivos e sem anúncios
    Cifra Club Pro
    Aproveite o Cifra Club com benefícios exclusivos e sem anúncios
    OK