Cifra Club

Aprenda

O Leão e a Igreja (part. Nívea Soares)

Preto No Branco

Cifra: Principal (violão e guitarra)
Tom: C
[Intro]

E|--8-7------------------------------------|
B|------10--8-10-8-------------------------|
G|-----------------9--7-9-7----------------|
D|-----------------------------------------|
A|-----------------------------------------|
E|-----------------------------------------|

E|-----------------------------------------|
B|-/13-12----------------------------------|
G|--------14-14~~--12-14-12----------------|
D|--------------------------14--12-14-12---|
A|-----------------------------------------|
E|-----------------------------------------|

E|-----------------------------------------|
B|--13-12----------------------------------|
G|--------14-14~~--------------------------|
D|-----------------------------------------|
A|-----------------------------------------|
E|-----------------------------------------|

    F          C9
Ela é a expressão
       G       Am  
Do que há de belo
    F          C9
É a noiva do Leão
      G        Am     
Seu amor eterno

          F             C9
E fez da terra o seu jardim
          G           Am     
Pra anunciar o seu amor
            F            C9
E quando o mal tenta impedir
         G         Am     
O leão ruge

      F             C9
E se luta contra o mal
      G      Am 
Ela é corajosa
    F            C9
Se aponta para o céu
      G      Am
Ela é gloriosa

         F              C9
E se ela chora ou sente dor
          G            Am
O noivo a leva pro jardim
            F               C9
Não há quem possa com esse amor
          G
O leão ruge

[Refrão]

Am        F
Seja onde for
C9          G
Ele vem pra defender
Am       F
Se pelo Seu amor
C9        G
O leão ruge
Composição de Clóvis Pinho
Colaboração e revisão:
  • Paulo Cesar
  • Rodrigo Biancard
4.090 exibições
    • ½ Tom
    • A
    • Bb
    • B
    • C
    • Db
    • D
    • Eb
    • E
    • F
    • F#
    • G
    • Ab
  • Adicionar à lista

    0 comentários

    Mostrar mais comentários

    Conseguiu tocar?

    0 Tocaram 0 Ainda não

    Grave um vídeo tocando O Leão e a Igreja (part. Nívea Soares) e mande pra gente!

    00:00 / 00:00
    outros vídeos desta música
    repetir qualidade Automático
    Outros vídeos desta música
    00:00 / 00:00
    Automático
    OK