Cifra Club

Greet The Sacred Cow

Primus

Cifra: Principal (violão e guitarra)
Selo Cifra Club: esta cifra foi revisada para atender aos critérios oficiais da nossa Equipe de Qualidade.
tom: Fm
   <                                                                Delay on
E|---|---------------------------------------------------------------------------|
B|---|---------------------------------------------------------------------------|
G|---|-----------------------------------------------------------------7-----8-7-|
D|-0-|-7---7-7--7---8---7---7-7--7---8---7---7-7--7---8---7---7-7--7-------------|
A|-0-|-5---5-5--5---6---5---5-5--5---6---5---5-5--5---6---5---5-5--5-------------|
E|---|---------------------------------------------------------------------------|
 
 [Verse 1]
 
                                                     Delay off
E|--------------------------------------------------------|
B|--------------------------------7-8-7---8---7---7-------|
G|----7/11--8-7-----------------7-------7---7---7-----7b8-|
D|-0--------------7-5-7/10---0----------------------------|
A|--------------------------------------------------------|
E|--------------------------------------------------------|
 
 [Chorus 1]
 
E|---------------------------------------------------------------|
B|---------------------------------------------------------------|
G|---------------------------------------------------------------|
D|-7---7-7--7---8---7---7-7--7---8---7---7-7--7---8---7---7-7--7-|
A|-5---5-5--5---6---5---5-5--5---6---5---5-5--5---6---5---5-5--5-|
E|---------------------------------------------------------------|
 
 [Interlude]
 
 Delay on
E|-----------------------|
B|-----8h10p8\7--4h7p4\3-|
G|-8---------------------|
D|-----------------------|
A|-----------------------|
E|-----------------------|
 
 [Verse 2]
 
                                        Delay off
E|---------------------------------------------|
B|--------------------7-8-7-4h7-4h7p4\3--------|
G|----------------8p7----------------------7b8-|
D|-0-----------0-------------------------------|
A|-----6b8r6-----------------------------------|
E|---------------------------------------------|
 
 [Chorus 2]
 
E|--------------------------------------------------------------------|
B|--------------------------------------------------------------------|
G|--------------------------------------------------------------------|
D|-7---7-7--7---8---7---7-7--7---8---7---7-7--7---8---7---7-7--7----8-|
A|-5---5-5--5---6---5---5-5--5---6---5---5-5--5---6---5---5-5--5----6-|
E|--------------------------------------------------------------------|
 
E|---------------------------------------------------------------|
B|---------------------------------------------------------------|
G|---------------------------------------------------------------|
D|-7---7-7--7---8---7---7-7--7---8---7---7-7--7---8---7---7-7--7-|
A|-5---5-5--5---6---5---5-5--5---6---5---5-5--5---6---5---5-5--5-|
E|---------------------------------------------------------------|
 
 [Bridge]
 
  Turn on envelope filter
E|-------------9-----------------------------9---------|
B|-----9----10---12-------9----------9----10---12------|
G|-10----11---------9-10----11---10----11---------9-10-| x4
D|-----------------------------------------------------|
A|-----------------------------------------------------|
E|-----------------------------------------------------|
 
 [Chorus 3]
 
  Envelope filter off
   <
E|---|--------------------------------------------------------------------|
B|---|--------------------------------------------------------------------|
G|---|--------------------------------------------------------------------| x4
D|-0-|-7---7-7--7---8---7---7-7--7---8---7---7-7--7---8---7---7-7--7----8-|
A|-0-|-5---5-5--5---6---5---5-5--5---6---5---5-5--5---6---5---5-5--5----6-|
E|---|--------------------------------------------------------------------|
 
 [Outro]
 
            PM----
E|-----------------| |---|
B|-----------------| |---|
G|-----------------| x4 |---|
D|-7----7-7--6-5-4-| |-7-|
A|-5----5-5--4-3-2-| |-5-|
E|-----------------| |---|



************************************

| b   Bend
| /   Slide up
| h   Hammer-on
| p   Pull-off
| \   Slide down
| r   Release
| x   Dead note
| PM  Palm mute
| <   Volume swell
Outros vídeos desta música
    17 exibições
      • ½ Tom
      • Am
      • Bbm
      • Bm
      • Cm
      • C#m
      • Dm
      • Ebm
      • Em
      • Fm
      • F#m
      • Gm
      • G#m
    • Adicionar à lista

    Afinação da cifra

    Afinador online

      0 comentários

      Ver todos os comentários

      Entre para o Cifra Club PRO

      Tenha acesso a benefícios exclusivos no App e no Site

      • Chega de anúncios

      • Badges exclusivas

      • Mais recursos no app do Afinador

      • Atendimento Prioritário

      • Aumente seu limite de lista

      • Ajude a produzir mais conteúdo

      Cifra Club Pro

      Aproveite o Cifra Club com benefícios exclusivos e sem anúncios
      Cifra Club Pro
      Aproveite o Cifra Club com benefícios exclusivos e sem anúncios
      Ops (: Contenido disponible sólo en portugués.
      OK