Cifra Club

Vim Para Adorar-te

Quatro Por Um

Cifra: Principal
exibições 545.198
Tom: F
[Intro]  F  C  Gm  Bb9  F  C  Bb9

 F         C           Gm       Bb9
Luz das Nações que dissipa as trevas
F            C          Bb9
Abre os meus olhos pra ver
 F       C           Gm      Bb9
Lindo tu és, eu só quero adorar-Te
 F           C        Bb9
Dar os meus dias pra Ti

             F                     C/E
Vim para adorar-Te, vim para prostrar-me
            F/A            Bb9
Vim para dizer-Te: És meu Deus
             F                 C/E
Totalmente amável, totalmente digno
           F/A       Bb9
És maravilhoso para mim

 F         C       Gm      Bb9
Rei sobre todos Tu és Exaltado
F       C        Bb9
Entronizado nos Céus
 F      C     Gm        Bb9
Humildemente viestes a Terra
 F     C        Bb9
Se entregou por amor

             F                     C
Vim para adorar-Te, vim para prostrar-me
            F/A            Bb9
Vim para dizer-Te: És meu Deus
             F                 C
Totalmente amável, totalmente digno
           F/A       Bb9
És maravilhoso para mim
             F                     C
Vim para adorar-Te, vim para prostrar-me
            F/A        Bb9
Vim para dizer-Te: És meu Deus
             F                 C
Totalmente amável, totalmente digno
        F/A          Bb9
És maravilhoso para mim

     C   Dm        Bb9
Não saberei o quanto custou
     C    Dm      Bb9
Ver meus pecados lá na Cruz
     C   Dm         Bb9
Não saberei quanto custou
     C      Dm    Bb9
Ver meus pecados lá na Cruz

     C   F/A     Bb9
Não saberei quanto custou
     C    F/A     Bb9
Ver meus pecados lá na Cruz
     C   F/A     Bb9
Não saberei quanto custou
     C    F/A     Bb9
Ver meus pecados lá na Cruz

             F
Vim para adorar-Te
               C/E
Vim para prostrar-me
            F/A            Bb9
Vim para dizer-Te: És meu Deus
             F
Totalmente amável
 C/E        Gm
Totalmente Digno
Bb      F/A     C/E  Bb9
És maravilhoso para mim
             F
Vim para adorar-Te
               C
Vim para prostrar-me
          F/A          Bb9
Vim para dizer-Te: És meu Deus
             F
Totalmente amável
 C/E        Gm
Totalmente Digno
Bb         F/A       Bb9
És maravilhoso para mim

[Solo]

E|--4~~-4-5-2~~-2-4-5-5-4-2-0------4~~-4-5-2~~-2-4--------------------------| 
B|----------------------------5~~------------------5~~----------------------|
G|--------------------------------------------------------------------------|
D|--------------------------------------------------------------------------|
A|--------------------------------------------------------------------------|
E|--------------------------------------------------------------------------|

[Refrão]

E|--5-4-4-2-4~~-4-------5-4-4-2-2~~-2-2-------5-4-4-2-4~~-4-----4--4/7------|
B|-----------------------------------------------------------------------5--|
G|--------------------------------------------------------------------------|
D|--------------------------------------------------------------------------|
A|--------------------------------------------------------------------------|
E|--------------------------------------------------------------------------|

0 comentários

    mostrar mais comentários

    Conseguiu tocar?

    40tocaram1ainda não

    Grave um vídeo tocando Vim Para Adorar-te e mande pra gente!

    00:00 / 00:00
    outros vídeos desta música
    repetirqualidadeautomática
    Outro vídeos desta música
      00:00 / 00:00
      automática
      OK