Cifra Club

Aprenda

Vim Para Adorar-te

Quatro Por Um

Tab de baixo: Principal
G|-------------------------------------------------------------| 
D|---2-----------2------------2----------------2---------------| 
A|------2-----0------2----0-------2------0-------2----0--------| 
E|---------2-----------------------------2---------------------| 

(refrão)
G|-----------------------------------------------------------------------------| 
D|--2---2----2---4---------------------------2--4--2---------------------------| 
A|-----2---2--------2---22--3--4-----2--4----------4--2--0---0--2--4-----------| 
E|----------------------2------------------------------------------------------|  (2x) 

(ponte)
G|---------------------------------|
D|---------------------------------|
A|--2----2--4----4--0----0--0------|
E|---------------------------------|
Composição de Tim Hughes
Colaboração e revisão:
  • Wellington Goulart
10.978 exibições

0 comentários

Ver todos os comentários
00:00 / 00:00
outros vídeos desta música
repetir qualidade Automático
Outros vídeos desta música
00:00 / 00:00
Automático

Cifra Club Pro

Aproveite o Cifra Club com benefícios exclusivos e sem anúncios
Cifra Club Pro
Aproveite o Cifra Club com benefícios exclusivos e sem anúncios
OK