Cifra Club

Anoche estuvo aquí

Quique González

Cifra: Principal (violão e guitarra)
Selo Cifra Club: esta cifra foi revisada para atender aos critérios oficiais da nossa Equipe de Qualidade.
tom: Dm


E|----------------------0------|
B|-----1-----------3-----------|
G|-----------0-----------------| intro x 4
D|---------2---2---------------|
A|-----3-----------3----3------|
E|-----------------------------|


anoche estuvo aqui      llevo pensando en ello

E|--------------------0------------------------------|
B|-----1---------3---------1------------------1------|
G|----------0--------------0-----0------------0------|
D|--------2---2----------------2---2-------0-----0---|
A|-----3---------3----3----3------------1------------|
E|---------------------------------------------------|


   todo el día......

E|-------------------------------0----|
B|--2------------3--3--2----------2---|
G|--2-----2------2--2--2----2------2--|
D|-----2-----2---2--2--2--2---2-------|
A|--0---------------------------------|
E|------------------------------------|


  subo y bajo gran vía como un policia local         como el autoestopista

E|--------1------------------0--------------------------------------------|
B|------3---3-----------1------1------1---------1---------3--------3------|
G|----2-------2------2----2------2----0-------0---0-------0----0-----0----|
D|--0--------------3---------------------0/2---------2-------0---0-----0--|
A|------------------------------------3-----------------------------------|
E|--------------------------------------------------------3---------------|

de sus sueños
E|-----------------------0-----------|
B|-1------1----------1------1--------|
G|-2--0/2-------0/2-----------2------|
D|-3---------3-------------------3---|
A|-----------------------------------|
E|-----------------------------------|


     Pisando los charcos   de mil novecientos   cincuenta  y  seis

E|---------------------------------------------------------------------------|
B|----1----1------1---1---1-----1------1----1----------1--------------1-----|
G|----0----0------2---2---0-----0------2----2-------0-----0-------0------0--|
D|-------2----2---3---3------2-----2---3----3----2------------0--------------|
A|----3-------------------0--------------------------------------------------|
E|---------------------------------------------------------------------------|

enlaza con la intro en C



Segundo y tercer versos:

E|--------------------0-----------------------------------------------------|
B|-----1---------3---------1------------------1--------2------------3--3--2-|
G|----------0--------------0-----0------------0--------2-----2------2--2--2-|
D|--------2---2----------------2---2-------0-----0--------2-----2---2--2--2-|
A|-----3---------3----3----3------------1--------------0--------------------|
E|--------------------------------------------------------------------------|

E|--------0------------1------------------0------------------------------------|
B|---------2---------3---3-----------1------1------1-----------1---------------|
G|---2------2------2-------2------2----2------2----0-----0-----0-----0---------|
D|-2---2---------0--------------3----------------------2---2-------0---0-------|
A|-------------------------------------------------3-----------1---------------|
E|-----------------------------------------------------------------------------|

E|--------------0------------------------------------------------------------|
B|-1--------1------1---------1------1------1------1-------3--------3---------|
G|-2--0/2-------------2------2------2------2------2-------0---0-------0------|
D|-3---------------------3---3---3-----3------3-------3-----0---0--------0---|
A|---------------------------------------------------------------------------|
E|--------------------------------------------------------3------------------|
00:00 / 00:00
Outros vídeos desta música
Repetir
Outros vídeos desta música
3 exibições
    • ½ Tom
    • Am
    • Bbm
    • Bm
    • Cm
    • C#m
    • Dm
    • Ebm
    • Em
    • Fm
    • F#m
    • Gm
    • G#m
  • Adicionar à lista

Afinação da cifra

Afinador online

    0 comentários

    Ver todos os comentários

    Conseguiu tocar?

    0 Tocaram 0 Ainda não

    Grave um vídeo tocando Anoche estuvo aquí e nos envie!

    Entre para o Cifra Club PRO

    Tenha acesso a benefícios exclusivos no App e no Site

    • Chega de anúncios

    • Mais recursos no app do Afinador

    • Atendimento Prioritário

    • Aumente seu limite de lista

    • Ajude a produzir mais conteúdo

    00:00 / 00:00

    Cifra Club Pro

    Aproveite o Cifra Club com benefícios exclusivos e sem anúncios
    Cifra Club Pro
    Aproveite o Cifra Club com benefícios exclusivos e sem anúncios
    OK