Cifra Club

Temple of the King

Rainbow

Cifra: Principal (violão e guitarra)
Selo Cifra Club: esta cifra foi revisada para atender aos critérios oficiais da nossa Equipe de Qualidade.
tom: Am
[Intro] Am  F  G
        Am  G  Dm  Am

E|------------------------------| ----------------------|
B|--5----3h5p3--1---3--1--------| --10--8---------------|
G|------------------------2-----| ---------9--7---------|
D|------------------------------| ---------------10--7--|
A|------------------------------| ----------------------|
E|------------------------------| ----------------------|

E|------------------------------| ----------------------|
B|--3----1h3p1--0---1--0--------| ------------0--1--3---|
G|------------------------2-----| --2--4---5------------|
D|------------------------------| ----------------------|
A|------------------------------| ----------------------|
E|------------------------------| ----------------------|

E|------------------------------| ----------------------|
B|--5----3h5p3--1---3--1--0-----| -----------?----------|
G|------------------------------| ----------------------|
D|------------------------------| ----------------------|
A|------------------------------| ----------------------|
E|------------------------------| ----------------------|

E|------------------------------| -------------------------|
B|--3----3h5p3--1---3--1--------| ------------5--3---------|
G|------------------------2-----| --2--4---5--------4--(5)-|
D|------------------------------| -------------------------|
A|------------------------------| -------------------------|
E|------------------------------| -------------------------|

C                G
  One day in the year of the fox
        Dm              Am
Came a time remembered well
            F                     G
When the strong young man of the rising sun
           Am
Heard the tolling of the great black bell

C                G
  One day in the year of the fox
          E             Am
When the bell began to ring
           F                  G
Meant the time had cometh for one to go
        Am
To the temple of the king

  Dm
There in the middle of the circle he stands
 Am
Searching, seeking
      G
With just one touch of his trembling hand
    Am
The answer will be found

 Dm
Daylight waits while the old man sings
 Am
Heaven help me
      G
And then like the rush of a thousand wings
     E
It shines upon the one
         F       G      Am
And the day had just begun

( Am  F  G  Am )
( Am  G  Dm  F  Am )

C                G
  One day in the year of the fox
        Dm              Am
Came a time remembered well
            F                     G
When the strong young man of the rising sun
           Am
Heard the tolling of the great black bell

C                G
  One day in the year of the fox
          E             Am
When the bell began to sing
              F                  G
It meant the time had cometh for one to go
        Am
To the temple of the king

  Dm
There in the middle of the people he stands
 Am
Seeing, feeling
      G
With just a wave of a strong right hand
      E
He's gone
        F     G       Am
To the temple of the king

[Solo] Am  F  Am  F
       Am  G  Dm  E
       Am  F  Am  F
       Am  G  Dm  E

[tab - solo]

     Am      F                Am      F                Am            G         Dm
E|-----------------------------------------------------------------------------|
B|------8-----8-10---13\------10------------13--15--17---17p15-13-15--13-15-15-|
G|---------10--------------9----------12-14------------------------------------|
D|--7--------------------------------------------------------------------------|
A|-----------------------------------------------------------------------------|
E|-----------------------------------------------------------------------------|

              E          Am           F            Am                F
E|-----------------------------------------------------------------------|
B|-b17r15--12------12-13~---12-13---------------13--17--15-b17r15-13-----|
G|----------------------------------------12-14--------------------------|
D|---------------------------------15------------------------------------|
A|-----------------------------------------------------------------------|
E|-----------------------------------------------------------------------|

                Am                  G       Dm             E
E|-----------------------------------------------------------------------------|
B|----------------------12-13-15-15~-----13-15-17b18----17b18--r17b18r17b18r17-|
G|------12-----------14--------------------------------------------------------|
D|--15-------14----------------------------------------------------------------|
A|-----------------------------------------------------------------------------|
E|-----------------------------------------------------------------------------|

 Dm
Far from the circle at the edge of the world
      Am
He's hoping, wondering
  G                      Dm
Thinking back from the stories he's heard
     Am
Of what he's going to see

  Dm
There in middle of the circle it lies
 Am
Heaven help me
     G
Then all could see by the shine in his eyes
    E
The answer had been found

 Dm
Back with the people in the circle he stands
 Am
Giving, feeling
      G
With just one touch of a strong right hand
       E
They know
        F     G        Am
Of the temple and the king

( Am  F  G  Am )
( Am  G  Dm  F  Am )

[Final] F  E  Am
Outros vídeos desta música
62.884 exibições
    • ½ Tom
    • Am
    • Bbm
    • Bm
    • Cm
    • C#m
    • Dm
    • Ebm
    • Em
    • Fm
    • F#m
    • Gm
    • G#m
  • Adicionar à lista

Afinação da cifra

Afinador online

    0 comentários

    Ver todos os comentários

    Entre para o Cifra Club PRO

    Tenha acesso a benefícios exclusivos no App e no Site

    • Chega de anúncios

    • Mais recursos no app do Afinador

    • Atendimento Prioritário

    • Aumente seu limite de lista

    • Ajude a produzir mais conteúdo

    Cifra Club Pro

    Aproveite o Cifra Club com benefícios exclusivos e sem anúncios
    Cifra Club Pro
    Aproveite o Cifra Club com benefícios exclusivos e sem anúncios
    OK