Cifra Club

Socialite

Richie Kotzen

Cifra: Principal (violão e guitarra)
Tom: D
Obs1: Sexta corda(E) afinada um tom abaixo(D).
Obs2: Durante a musica, é usado frequentemente o efeito Phaze moderado*

INTRODUÇÃO:
00:00
E|------------------------------------------------------I
B|---------------------------------------x---5-5--------I
G|---------------------------------------x---5-5--------I
D|---///---------------------------------x--------------I
A|---///-------------3h5h3------------------------------I
D|--///----0--3--5-----------5--3--0--------------------I

00:03
E|------------------------------------------------------I
B|---------------------------------x---5----------------I
G|---------------------------------x---5----------------I
D|---------------------------------x--------------------I
A|--------------3h5h3-----------------------------------I
D|--0--3--5-----------5--3--0---------------------------I

VERSO:
00:05
E|----------------------------------------------------------------I
B|---3~---------------3~------------------------------------------I
G|---2~-------5~------2~------------------------------------------I    2X
D|---0~-------5~------0~-----------5---3---5--------5---3---5-----I
A|---0~-------3~------0~-----------5---3---5--------5---3---5-----I
D|---------------------------------5---3---5--------5---3---5-----I

PRÉ-REFRÃO:                                                                          
00:22                                                                                           
E|----------------------------------------------------------------I       
B|------------------10----12--12----10----------------------------I         
G|-------------x----10----12--12----10----------------------------I 6X   
D|-------------x-----------------------------12h10----------------I          
A|----10h12-x--------------------------------------12h10----------I         
D|----------------------------------------------------------------I          

FINAL DO PRÉ-REFRÃO:                            NO SEGUNDO PRÉ-REFRÃO:
00:33                                            01:20
E|---------------------------------------------------I-----------------------------------I
B|----12^--12^--12^--12^--12^ ~ ---------------------I-----------------------------------I
G|----12^--12^--12^--12^--12^ ~ ---------------------I----14 / 12--12 / 10--10-----------I 
D|---------------------------------------------------I-----------------------------------I
A|---------------------------------------------------I-----------------------------------I
D|---------------------------------------------------I-----------------------------------I


REFRÃO:
00:37
E|---------------------------------------------------------------------I
B|---------------------------------------------------------------------I
G|---10--7-------10--7-----x----10--7------10---7-----x----------------I
D|---10--7-------10--7-----x----10--7------10---7-----x----------------I
A|----7--5-------7---5-----x-----7--5-------7---5-----x----------------I
D|---------------------------------------------------------------------I

E|--------------------------------------------------------------------I
B|--------------------------------------------------------------------I
G|---10--7-------10--7-----x------------------------------------------I
D|---10--7-------10--7-----x------5--3---5--------5--3--5-------------I
A|----7--5-------7---5-----x------5--3---5--------5--3--5-------------I
D|--------------------------------5--3---5--------5--3--5-------------I


PARADA:
01:46
E|----------------------------------------------------------------------I
B|----------------------------------------------------------------------I
G|----------------------------------------------------------------------I
D|--3-x-3----3----3--3----------5h7--5---3h5h3--------------------------I
A|-------------5-------------------------------------5--3h5-------------I
D|----------------------------------------------------------------------I

FINAL:
02:43
E|--------------------------------------------------------------------------I
B|----------6------------6-----------6------------6 ~ ----------------------I
G|----------5------------5-----------5------------5 ~ ----------------------I
D|-----0----------0------------0-----------0--------------------------------I
A|-----0----------0------------0-----------0--------------------------------I
D|-----0----------0------------0-----------0--------------------------------I
exibições 1.572
Acordes para:
    Composição: Richie Kotzen Colaboração e revisão:
    • Marcelo

    0 comentários

    mostrar mais comentários

    Conseguiu tocar?

    0 tocaram 0 ainda não

    Grave um vídeo tocando Socialite e mande pra gente!

    00:00 / 00:00
    outros vídeos desta música
    repetir qualidade Automático
    Outros vídeos desta música
    00:00 / 00:00
    Automático
    OK