Cifra Club

Livin' la vida loca

Ricky Martin

Tab de baixo: Principal
exibições 3.487
Common Time(4/4)
Standard Tuning(EADG)

VERSE/GUITAR SOLO:
|-------------|
|*-----5-3h5-*|
|*-3---------*|
|-------------|
   1 2 3 4 &

PRE-CHORUS:
|-----------|-----------|-----------|-----------|-----------|
|-----------|-----------|-----------|-----------|-----------|
|-----4-2h4-|-----4-2h4-|-----6-4h6-|-----6-4h6-|-----7-5h7-|
|-2---------|-2---------|-4---------|-4---------|-5---------|
  1 2 3 4 &   1 2 3 4 &   1 2 3 4 &   1 2 3 4 &   1 2 3 4 &

|-----------|-----------------|-----------------|-----------------|
|-----------|-----------------|-----------------|-----------------|
|-----7-5h7-|-----------------|-----------------|-----------------|
|-5---------|-7-7-7-7-7-7-7-7-|-7-7-7-7-7-7-7-7-|-4-4-4-4-4-4-4-4-|
  1 2 3 4 &   1 & 2 & 3 & 4 &   1 & 2 & 3 & 4 &   1 & 2 & 3 & 4 &

|-----------|
|-----------|
|-----------|
|-4-4-4-----|
  1 & 2 3 4 

CHORUS:
|------------|---------------|-----------|------------|
|*-----------|---------------|-----------|-----------*|
|*-4---------|-r-4---4-7-4---|-2---------|-r-2---4-2-*|
|------4---7-|---------------|-----2---4-|------------|
   1 2 & 3 4   1 & 2 & 3 & 4   1 2 & 3 4   1 & 2 3 4

|------------|------------|
|*-----------|-----------*|
|*-2---------|-r-2---4-2-*|
|------2---4-|------------|
   1 2 & 3 4   1 & 2 3 4


By: Johari Taylor
E-mail: *, or *
More Bass Tabs: http://*~viking/*

0 comentários

    mostrar mais comentários

    Conseguiu tocar?

    0tocaram0ainda não

    Grave um vídeo tocando Livin' la vida loca e mande pra gente!

    00:00 / 00:00
    outros vídeos desta música
    repetirqualidadeautomática
    Outro vídeos desta música
      00:00 / 00:00
      automática
      OK