Cifra Club

Luz da Minha Vida

Ronaldo Adriano

Cifra: Principal
exibições 13.742
Tom: G#
Intro: Ab  Eb  Ab  Ab7  C#  Ab  Eb  Ab

E|----------------------|-----------------|-------------------------|
B|----------------------|-----------------|--------6----------------|
G|---------------5-6-8--|--5-8-5----------|-5-8-6-8-8-6-----5/6-----|
D|-------5-6-8----------|---------8-6-4---|---------------6---------|
A|---6-8----------------|-----------------|-------------8-----------|
E|----------------------|-----------------|-------------------------|

E|------------------------------------------------|
B|----9-8-6---------------------------------------|
G|------------8-6-5-------------------------------|
D|-------------------8-6-5------------------------|
A|---------------------------8-6-4----------------|
E|-----------------------------------8-6-4--------|

Ab                                               Eb
 Luz da minha vida mulher adorada dona dos meus beijos
 Ab7                                                C#
 Volte aos meus braços suplico chorando em nome do amor
                                 Eb                   Ab
 Serei seu marido, amante ou escr8-avo o que você quiser
              Bb                               Eb
 O que eu não posso é continuar neste mundo de dor

E|--6-4-3-3h4p3--------------------------|
B|------------------6-4------------------|
G|----------------------6-3--------------|
D|---------------------------5-----------|
A|-----------------------------6---------|
E|---------------------------------------|

 Ab                                         Eb
Sem você comigo a vida é castigo tudo é solidão
Ab                                Ab7                C#
A noite em meu leito paixão e despeito me impedem dormir
                               Eb7              Ab      Ab7
Por isso eu peço seu breve regresso tenha compaixão
             C#                 Eb              Ab
Ou serei o homem mais triste da terra sem você aqui
            Eb                   Ab
Minha pobre vida, já não tem sentido
                                Eb7                  Ab
Sou barco perdido num mar de tristeza sem os beijos seus
              Eb                     Ab
Traga-me seu corpo,  para os meus abraços
            C#                Eb                    Ab
Mate meu cansaço ilumine meus passos pelo amor de Deus


 Solo Acordeon: Ab  Eb  Ab  Ab7  C#  Ab  Eb  Ab
E|----------------------|-----------------|-------------------------|
B|----------------------|-----------------|--------6----------------|
G|---------------5-6-8--|--5-8-5----------|-5-8-6-8-8-6-----5/6-----|
D|-------5-6-8----------|---------8-6-4---|---------------6---------|
A|---6-8----------------|-----------------|-------------8-----------|
E|----------------------|-----------------|-------------------------|

E|------------------------------------------------|
B|----9-8-6---------------------------------------|
G|------------8-6-5-------------------------------|
D|-------------------8-6-5------------------------|
A|---------------------------8-6-4----------------|
E|-----------------------------------8-6-4--------|


 Ab                                         Eb
Sem você comigo a vida é castigo tudo é solidão
Ab                                Ab7                C#
A noite em meu leito paixão e despeito me impedem dormir
                               Eb7              Ab      Ab7
Por isso eu peço seu breve regresso tenha compaixão
             C#                 Eb              Ab
Ou serei o homem mais triste da terra sem você aqui
            Eb                   Ab
Minha pobre vida, já não tem sentido
                                Eb7                  Ab
Sou barco perdido num mar de tristeza sem os beijos seus
              Eb                     Ab
Traga-me seu corpo,  para os meus abraços
            C#                Eb                    Ab
Mate meu cansaço ilumine meus passos pelo amor de Deus
Acordes para:
    Composição: Noé Eustáquio BorgesColaboração e revisão:
    • Nilcélio Novatto
    • Geovanni Pimenta
    • Junior 77

    0 comentários

      mostrar mais comentários

      Conseguiu tocar?

      2tocaram0ainda não

      Grave um vídeo tocando Luz da Minha Vida e mande pra gente!

      00:00 / 00:00
      outros vídeos desta música
      repetirqualidadeautomática
      Outro vídeos desta música
        00:00 / 00:00
        automática
        OK