Cifra Club

Onde Está O Meu Amor ?

RPM

Cifra: Principal (violão e guitarra)
Selo Cifra Club: esta cifra foi revisada para atender aos critérios oficiais da nossa Equipe de Qualidade.
tom: D
1º verso
E |-----------------------------------------------------------------|
B |--0-----1--0-----0----0---1--0-----------------------------------|
G |-----0--------2---------0-------2--2----0--2---------------------|
D |--------------------------------------4--------------------------|
A |-----------------------------------------------------------------|
E |-----------------------------------------------------------------|

E |-----------------------------------------------------------------|
B |--0-----1--0-----0----0---1--0-----------------------------------|
G |-----0--------2---------0-------2--2----0--2---------------------|
D |--------------------------------------4--------------------------|
A |-----------------------------------------------------------------|
E |-----------------------------------------------------------------|

2º Verso
E |-----------------------------------------------------------------|
B |-----0--1-----------------------0--1-----------------------------|
G |--2-------2-------------------2------2------------2--------------|
D |------------2----4-----0---0------------2--4--0------------------|
A |-----------------------------------------------------------------|
E |-----------------------------------------------------------------|

3º Verso
E |---------------------------------------------------------------------------|
B |--------1------------------------------------1---1---3---------------------|
G |--3---3----2---3-2--0-0--3--2-0--2---3---3-----2-------3-----3--2--0--2----|
D |----3----------------------------------3-----------------------------------|
A |---------------------------------------------------------------------------|
E |---------------------------------------------------------------------------|

4º Verso
E |-----------------------------------------------------------------|
B |--0-----1--0----0---0----1--0---------1--1---0-------------------|
G |-----0--------2--------0-------2---2---------0-------------------|
D |---------------------------------------------0-------------------|
A |-----------------------------------------------------------------|
E |-----------------------------------------------------------------|

Ordem da musica

1º Verso
2º Verso
1º Verso
3º Verso
1º Verso
2º Verso
3º Verso
4º Verso
Outros vídeos desta música
171.115 exibições
    • ½ Tom
    • A
    • Bb
    • B
    • C
    • Db
    • D
    • Eb
    • E
    • F
    • F#
    • G
    • Ab
  • Adicionar à lista

Afinação da cifra

Afinador online

    0 comentários

    Ver todos os comentários

    Entre para o Cifra Club PRO

    Tenha acesso a benefícios exclusivos no App e no Site

    • Chega de anúncios

    • Mais recursos no app do Afinador

    • Atendimento Prioritário

    • Aumente seu limite de lista

    • Ajude a produzir mais conteúdo

    Cifra Club Pro

    Aproveite o Cifra Club com benefícios exclusivos e sem anúncios
    Cifra Club Pro
    Aproveite o Cifra Club com benefícios exclusivos e sem anúncios
    OK