Cifra Club

Olhos Coloridos

Sandra de Sá

Tab de baixo: Principal
Selo Cifra Club: esta cifra foi revisada para atender aos critérios oficiais da nossa Equipe de Qualidade.
tom: Afinação:
Introdução e  Versos
G|-------------|----------------|-------------|----------------|------------------------------
D|-33-3---1-3--|----33-3---1-3--|-------------|----------------|------------------------------
A|------3------|--x------3------|-33-3---1-3--|---33-3---1-3-2-|-1-1--1-----1---1-1--1-----1--
E|-------------|----------------|------3------|-x------3-------|--------1-4---x--------1-4----


---------------------------|
--33-3---1-3----33--1-2-3--|
-------3------3------------|
---------------------------|


Refrão
G|-------------------------------|------------------------|
D|-------------------------------|-33-3---1-3---33-3---1--|
A|--1-1--1-----1---1-1--1-----1--|------3-----x------3----|
E|---------1-4---x--------1-4----|------------------------|

Pessoal, pode confiar que essas Riffs estão Jóia, 
foi um Brother chamado Gasparzinho que fez ! abraços para todos !

Um grande Abraço Tonico 


_______________________________________________________
Contribuição: Wellington Madeira(wellington.eagle@avon.com)
Outros vídeos desta música
    18.709 exibições

    Afinação da cifra

    Afinador online

    0 comentários

    Ver todos os comentários

    Entre para o Cifra Club PRO

    Tenha acesso a benefícios exclusivos no App e no Site

    • Chega de anúncios

    • Mais recursos no app do Afinador

    • Atendimento Prioritário

    • Aumente seu limite de lista

    • Ajude a produzir mais conteúdo

    Cifra Club Pro

    Aproveite o Cifra Club com benefícios exclusivos e sem anúncios
    Cifra Club Pro
    Aproveite o Cifra Club com benefícios exclusivos e sem anúncios
    OK