Cifra Club

Despedida

Selvagens à Procura de Lei

Cifra: Principal
exibições 59.444
Tom: B
Intro: 
                     
E|-----7---7-------7-|
B|---7---7---8---8-7-|
G|—8-----------9---8-|
D|-----------------9-|
A|---------7-------9-|
E|-7---------------7-|
            C#m                    B
Tentei falar, mas você não entendeu
           C#m                        B Em B
Voltei pra casa, te liguei, não atendeu.
                G#m                 C# C#sus4 C#
Eu me entrego à cidade, vou atrás de você
                    G#m                     C# C#sus4 C#
Algumas coisas não mudam, mas como posso saber?
                  F#
Quero tirar essa dúvida...

B          C#m      E    Em
Eu me dei conta de mim mesmo
           D#m                                 G#m
E quando vejo a sua foto parece que você tá falando comigo
          C#7
Agora eu tô no prejuízo...
 B          C#m         E        Em
Bem que eu queria te ver, mas não posso
                D#m
Porque os meus olhos estão encharcados
            G#m                  C#7
E eu não consigo te ver por enquanto.

G#m               C#
Eu não queria partir, mas você me convenceu. (3x)
G#m
Eu não queria partir

(Intro)

                  C#m                B
Só não quero que você me mantenha hipnotizado
           C#m                            B Em B
Duvido de tudo que segue pelo que é mais fácil.
                   G#m            C# C#sus4 C#
Eu me entrego a você, como uma cidade
             G#m                          C# C#sus4 C#
Derruba os muros, mostrando a realidade
                F#
Da nossa dupla solidão...

B          C#m      E    Em
Eu me dei conta de mim mesmo
           D#m                                 G#m
E quando vejo a sua foto parece que você tá falando comigo
          C#7
Quem vai carregar esse crucifixo...
 B          C#m         E        Em
Bem que eu queria te ver, mas não posso
                D#m
Porque os meus olhos estão encharcados
            G#m                    C#7
E eu não consigo te ver pelo menos por enquanto.

G#m               C#
Eu não queria partir, mas você me convenceu. (3x)
G#m               C#  B  A
Eu não queria partir

E|---------------------------------------
B|---------------------------------------
G|---8--8--8--6--8---6--4---6--4---------
D|------------------------5------5------- (4x)
A|---------------------------------------
E|---------------------------------------

E|---------------------------------------
B|---7--7--7--7--7---5--5---5--5---------
G|---8--8--8--6--8---6--4---6--4---------
D|------------------------5------5------- (10x)
A|---------------------------------------
E|---------------------------------------

E|---------------------------------------
B|---7--7--7--7--7---5--5---5--5---------
G|---8--8--8--6--8---6--4---6--4---------
D|------------------------5------5/4-----
A|---------------------------------------
E|---------------------------------------
Acordes para:

    0 comentários

      mostrar mais comentários

      Conseguiu tocar?

      41tocaram0ainda não

      Grave um vídeo tocando Despedida e mande pra gente!

      00:00 / 00:00
      outros vídeos desta música
      repetirqualidadeautomática
      Outro vídeos desta música
        00:00 / 00:00
        automática
        OK