Cifra Club

Aprenda

Faith Healer

Sensational Alex Harvey Band

Tab de baixo: Principal
Tabbed By : Dogz
e-mail: *

There are a few different versions of this song, all by SAHB so I picked on this version.

Tuning: Standard

Intro & Verse
G|-----------------------------------------------------------------|
D|-----------------------------------------------------------------|
A|-5-5-5-5-5-5-5-5-5-5-5-5-5-5-5-5-5-5-5-5-5-5-5-5-5-5-5-5-5-5-5-5-|
E|-----------------------------------------------------------------|
   (Guitar plays – F     G D F over the top of the bass)

Chorus                     ----- RIFF 1 ---------> (x 2)
G|---------------------|   --------------------------|
D|---------------------|   --------------------5-3---|
A|--1-1-1-1-0----------|   -3—5--3-5--3-5--3-5----5--|
E|---------------------|   --------------------------|
    Faith…  Faith

Verse                                                          (x 2)
G|-----------------------------------------------------------------|
D|-----------------------------------------------------------------|
A|-5-5-5-5-5-5-5-5-5-5-5-5-5-5-5-5-5-5-5-5-5-5-5-5-5-5-5-5-5-5-5-5-|
E|-----------------------------------------------------------------|

Chorus                     
G|---------------------|
D|---------------------|
A|--1-1-1-1-0----------|
E|---------------------|
    Faith…  Faith

    --- Riff 2 -----------------------------------> (x 2)
G|--------------------------------------------------|
D|--------------------------------------------------|
A|----5-7-8---------6-6-6-6-6-6-6-6-6-6-6-6-6-6-6-6-|
E|--3-------8-6-5-3---------------------------------|

Solo is same as verse                                          (x 2)
G|-----------------------------------------------------------------||---------------------|
D|-----------------------------------------------------------------||---------------------|
A|-5-5-5-5-5-5-5-5-5-5-5-5-5-5-5-5-5-5-5-5-5-5-5-5-5-5-5-5-5-5-5-5-||--1-1-1-1-0-0-0-0----|
E|-----------------------------------------------------------------||---------------------|

----- RIFF 1 ---------> (x 2)
G|--------------------------|
D|--------------------5-3---|
A|-3—5--3-5--3-5--3-5----5--|
E|--------------------------|

Verse                                                          (x 2)
G|-----------------------------------------------------------------|
D|-----------------------------------------------------------------|
A|-5-5-5-5-5-5-5-5-5-5-5-5-5-5-5-5-5-5-5-5-5-5-5-5-5-5-5-5-5-5-5-5-|
E|-----------------------------------------------------------------|

Chorus                     
G|---------------------|
D|---------------------|
A|--1-1-1-1-0----------|
E|---------------------|
    Faith…  Faith

    --- Riff 2 -----------------------------------> (x 4)
G|--------------------------------------------------|
D|--------------------------------------------------|
A|----5-7-8---------6-6-6-6-6-6-6-6-6-6-6-6-6-6-6-6-|
E|--3-------8-6-5-3---------------------------------|

                    

This is my first TAB. It may not be brilliant, but it is correct.
Is a shame nobody put’s SAHB’s songs on here, let’s hope people will continue what I have started.

===============================================================================


http://*

website coming soon:  
Composição de Alex Harvey / Hugh McKenna
272 exibições

0 comentários

Ver todos os comentários

Conseguiu tocar?

0 Tocaram 0 Ainda não

Grave um vídeo tocando Faith Healer e nos envie!

00:00 / 00:00
outros vídeos desta música
repetir qualidade Automático
Outros vídeos desta música
00:00 / 00:00
Automático

Cifra Club Pro

Aproveite o Cifra Club com benefícios exclusivos e sem anúncios
Cifra Club Pro
Aproveite o Cifra Club com benefícios exclusivos e sem anúncios
OK