Cifra Club

Moscas En La Casa

Shakira

Cifra (violão e guitarra)
Selo Cifra Club: esta cifra foi revisada para atender aos critérios oficiais da nossa Equipe de Qualidade.
tom: Am
intro: C Am F G

E|----------------10/12-12-10------------9----10/12-12-10--|
B|----------------------------13-10-9h10---10------------13|
G|-----9-9/12-(9)------------------------------------------|
D|---10----------------------------------------------------|
A|-10------------------------------------------------------|
E|---------------------------------------------------------|

E|----9h8----8h9-9-8----------------------------------------|
B|-10-----10--------10-10--10/12-12--10/8---------8---------|
G|---------------------------------------10/12-10--10-------|
D|---------------------------------------------------12-9-10|
A|----------------------------------------------------------|
E|----------------------------------------------------------|


  C         C*          Am
Mis dias sin ti son tan oscuros
    Am7                       F
tan largos tan grises mis dias sin ti
                         G
mis dias sin ti son tan absurdos
                               C
tan agrios tan duros mis dias sin ti


  C        C*            Am
Mis dias sin ti no tienen noche
           Am7              F
si alguna aparece es inutil dormir
                        G
mis dias sin ti son un derroche
                               Am
las horas no tienen principio si fin

               Am7
Tan faltos de aireeeeeeeeee
  F
tan llenos de nadaaaaaaaaaa
 Dm                               G
chatarra inservible basura en el suelo
            C
moscas en la casa


G  O: C Am F G

E|---------------10/12-12-10-----------9---12-13-12-10-----|
B|---------------------------13-10-9h10-10------------13-13|
G|-----9-9/12(9)-------------------------------------------|
D|---10----------------------------------------------------|
A|-10------------------------------------------------------|
E|---------------------------------------------------------|

E|-----------------------------------------------------------|
B|-9h10-12/13--10/12--8/10-----------------12-10-8-8---------|
G|-------------------------10/12--8/10-8-10---------10-------|
D|----------------------------------------------------12-9-10|
A|-----------------------------------------------------------|
E|-----------------------------------------------------------|

   C         C*            Am
Mis dias sin ti son como un cielo
           Am7                  F
sin lunas plateadas ni rastros de sol
                            G
mis dias sin ti son solo un eco
                           Am
que simpre repite la misma cancion


        Am7
Tan faltos de aireeeeeeeeee
  F
tan llenos de nadaaaaaaaaaa
 Dm                               G
chatarra inservible basura en el suelo
            C
moscas en la casa


   Em          Em7              Am                     Am7
Pateando las piedras aun sigo esperando, que vuelvas conmigo
     Dm     Dm7                     G
aun sigo buscando en las caras de ancianos, pedasos de niño

   Em      Em7               Am                    Am7
Cazando motivos que me hagan creer que aun sigo con vida
  D                                G                   C
mordiendo mis unñas ahogandome en llanto, extrañandote tanto

  Am       Am7             F
mis dias sin ti, mis dias sin ti
            G                      C
mis dias sin ti, como duelen los dias sin ti
     Am       Am7
sin tiiiiiiiiiiiiiiii
     F
sin tiiiii
     G
iiiiiiii


    C*
E   0
A   3
D   2
G   0
B   3
E   0
Outros vídeos desta música
    39 exibições
      • ½ Tom
      • Am
      • Bbm
      • Bm
      • Cm
      • C#m
      • Dm
      • Ebm
      • Em
      • Fm
      • F#m
      • Gm
      • G#m
    • Adicionar à lista

    Afinação da cifra

    Afinador online

      0 comentários

      Ver todos os comentários

      Entre para o Cifra Club PRO

      Tenha acesso a benefícios exclusivos no App e no Site

      • Chega de anúncios

      • Badges exclusivas

      • Mais recursos no app do Afinador

      • Atendimento Prioritário

      • Aumente seu limite de lista

      • Ajude a produzir mais conteúdo

      Cifra Club Pro

      Aproveite o Cifra Club com benefícios exclusivos e sem anúncios
      Cifra Club Pro
      Aproveite o Cifra Club com benefícios exclusivos e sem anúncios
      Ops (: Contenido disponible sólo en portugués.
      OK