Cifra Club

Moscas En La Casa

Shakira

Cifra (violão e guitarra)
Selo Cifra Club: esta cifra foi revisada para atender aos critérios oficiais da nossa Equipe de Qualidade.
tom: Am
INTRO:

E|-------------------10/12-12-10------------9-----|
B|-------------------------------13-10-9h10---10--|
G|--------9-9/12-(9)------------------------------|
D|-----10-----------------------------------------|
A|---10-------------------------------------------|
E|------------------------------------------------|



E|--10/12-12-10------9h8----8h9-9-8---------------|
B|-------------13-10-----10---------10-10-10/12---|
G|------------------------------------------------|
D|------------------------------------------------|
A|------------------------------------------------|
E|------------------------------------------------|



E|-------------8----8-----------------------------|
B|--12-10-8-10---10---9-12-9----------------------|
G|---------------------------12-9-10--------------|
D|------------------------------------------------|
A|------------------------------------------------|
E|------------------------------------------------|
Outros vídeos desta música
    40 exibições
      • ½ Tom
      • Am
      • Bbm
      • Bm
      • Cm
      • C#m
      • Dm
      • Ebm
      • Em
      • Fm
      • F#m
      • Gm
      • G#m
    • Adicionar à lista

    Afinação da cifra

    Afinador online

      0 comentários

      Ver todos os comentários

      Entre para o Cifra Club PRO

      Tenha acesso a benefícios exclusivos no App e no Site

      • Chega de anúncios

      • Badges exclusivas

      • Mais recursos no app do Afinador

      • Atendimento Prioritário

      • Aumente seu limite de lista

      • Ajude a produzir mais conteúdo

      Cifra Club Pro

      Aproveite o Cifra Club com benefícios exclusivos e sem anúncios
      Cifra Club Pro
      Aproveite o Cifra Club com benefícios exclusivos e sem anúncios
      Ops (: Contenido disponible sólo en portugués.
      OK