Cifra Club

Sandra Rosa Madalena

Sidney Magal

Tab de baixo: Principal
Introdução
G|--------------------------------------------------------------------
D|--------------------------------------------------------------------
A|---3-5---3-5---3-5---3-5---3-5---3-5---3-5---3-5---3-5---3-5--------
E|-5-----5-----3-----5-----3-----5-----3-----5-----3-----5-----3/0----

Refrão
Quero vê-la sorrir! Quero vê-la cantar!
Quero ver o seu corpo! dançar sem parar!
G|---------------------------------------------------
D|---5-7---5-7----------------5-7---5-7--------------
A|-5-----5-------3-5---3-5--5-----5-------3-5---3-5--
E|-------------3-----3------------------3-----3------

Refrão (novamente)
G|---------------------------------------------------
D|---5-7---5-7----------------5-7---5-7--------------
A|-5-----5-------3-5---3-5--5-----5------------------
E|-------------3-----3------------------3-333/0------

Verso 1
G|-----------------------------------------------     
D|-----------------------------------------------     
A|-3---3------3---3--1-11-1/5-55---3-5---3-5-----     
E|---3---3--1---1----------------3-----3---------     
						      
G|--------------------------------------------------- 
D|------------5-7---5-7----------5-7----------------- 
A|-3-0------------5-------3-5--5-------3-5---3-5----- 
E|-----3-1-0------------3------------3-----3--------- 

G|-----------------------------------------------     
D|-----------------------------------------------     
A|-3---3------3---3--1-11-1/5-55---3-5---3-5-----     
E|---3---3--1---1----------------3-----3---------     

G|-----------------------------------------------   
D|------------5-7---5-7----------5-7-------------   
A|-3-0------------5-------3-5--5-----------------   
E|-----3-1-0------------3------------3~~~--------  

Refrão
G|---------------------------------------------------
D|---5-7---5-7----------------5-7---5-7--------------
A|-5-----5-------3-5---3-5--5-----5-------3-5---3-5--
E|-------------3-----3------------------3-----3------

G|---------------------------------------------------
D|---5-7---5-7----------------5-7---5-7--------------
A|-5-----5-------3-5---3-5--5-----5------------------
E|-------------3-----3------------------3-333/0------

Verso 2
G|-----------------------------------------------     
D|-----------------------------------------------     
A|-3---3------3---3--1-11-1/5-55---3-5---3-5-----     
E|---3---3--1---1----------------3-----3---------     
						      
G|--------------------------------------------------- 
D|------------5-7---5-7----------5-7----------------- 
A|-3-0------------5-------3-5--5-------3-5---3-5----- 
E|-----3-1-0------------3------------3-----3--------- 

G|-----------------------------------------------     
D|-----------------------------------------------     
A|-3---3------3---3--1-11-1/5-55---3-5---3-5-----     
E|---3---3--1---1----------------3-----3---------     

G|-----------------------------------------------    
D|------------5-7---5-7----------5-7-------------    
A|-3-0------------5-------3-5--5-----------------    
E|-----3-1-0------------3------------3~~~--------  

Ponte (refrão)
G|-7-----------7----------7-----------7---------------- 
D|-------5-----------5-----------5-----------5--------- 
A|-5-----------5----------5-----------5---------------- 
E|-------3-----------3-----------3-----------3--------- 

Refrão 2x
G|---------------------------------------------------   |
D|---5-7---5-7----------------5-7---5-7--------------   |
A|-5-----5-------3-5---3-5--5-----5-------3-5---3-5--   |
E|-------------3-----3------------------3-----3------   |
							|  2x
G|---------------------------------------------------   |
D|---5-7---5-7----------------5-7---5-7--------------   |
A|-5-----5-------3-5---3-5--5-----5-------3-5---3-5--   |
E|-------------3-----3------------------3-----3------   |

Grande Clássico! hehehehehe
Abraço a todos! qualquer coisa e-mail me!
Bruno - Balberith - Banda RadioActive - São Carlos SP

_______________________________________________________
Contribuição: Bruno Luiz(balberith@bol.com.br)
00:00 / 00:00
Outros vídeos desta música
Repetir
Outros vídeos desta música
Composição de M. Cidras - / Roberto Livi / Sidney Magal
8.834 exibições

0 comentários

Ver todos os comentários

Conseguiu tocar?

0 Tocaram 0 Ainda não

Grave um vídeo tocando Sandra Rosa Madalena e nos envie!

Entre para oCifra Club PRO

Tenha acesso a benefícios exclusivos no App e no Site

  • Chega de anúncios

  • Prioridade de compra em lançamentos

  • Mais recursos no app do Afinador

  • Atendimento Prioritário

  • Descontos nos produtos Cifra Club

  • Ajude a produzir mais conteúdo

00:00 / 00:00

Cifra Club Pro

Aproveite o Cifra Club com benefícios exclusivos e sem anúncios
Cifra Club Pro
Aproveite o Cifra Club com benefícios exclusivos e sem anúncios
OK