Cifra Club

Ojalá

Silvio Rodriguez

Cifra: Versão 4 (violão e guitarra)
tom: Am
     Dm               Dmmaj7             Dm7             Dm6
E||----------10---------------9-------|----------8---------------7-------|
B||-------10-------10------10------10-|-------10------10------10------10-|
G||----10-------10------10------10----|----10------10------10------10----|
D||--0----------------0---------------|--0---------------0---------------|
A||-----------------------------------|----------------------------------|
E||-----------------------------------|----------------------------------|


  Dm               Dmmaj7             Dm7             Dm6
E|----------10---------------9-------|----------8---------------7-------|
B|-------10-------10------10------10-|-------10------10------10------10-|
G|----10-------10------10------10----|----10------10------10------10----|
D|--0----------------0---------------|--0---------------0---------------|
A|-----------------------------------|----------------------------------|
E|-----------------------------------|----------------------------------|

  Dm               Dmmaj7             Dm7             Dm6
E|----------10---------------9-------|----------8---------------7-------|
B|-------10-------10------10------10-|-------10------10------10------10-|
G|----10-------10------10------10----|----10------10------10------10----|
D|--0----------------0---------------|--0---------------0---------------|
A|-----------------------------------|----------------------------------|
E|-----------------------------------|----------------------------------|

  Dm               Dmmaj7             Dm7             Dm6
E|----------10---------------9-------|----------8---------------7-------|
B|-------10-------10------10------10-|-------10------10------10------10-|
G|----10-------10------10------10----|----10------10------10------10----|
D|--0----------------0---------------|--0---------------0---------------|
A|-----------------------------------|----------------------------------|
E|-----------------------------------|----------------------------------|

  C                           C
E|--------8------------8-----|--------8------------8-----|
B|------8-----8------8-----8-|------8-----8------8-----8-|
G|----9-----9------9-----9---|----9-----9------9-----9---|
D|--------------10-----------|--------------10-----------|
A|---------------------------|---------------------------|
E|--8------------------------|--8------------------------|

  Dm               Dmmaj7             Dm7             Dm6
E|----------10---------------9-------|----------8---------------7-------|
B|-------10-------10------10------10-|-------10------10------10------10-|
G|----10-------10------10------10----|----10------10------10------10----|
D|--0----------------0---------------|--0---------------0---------------|
A|-----------------------------------|----------------------------------|
E|-----------------------------------|----------------------------------|

  Em                         A
E|--------7-----------7-----|--------5-----------5-----|
B|------8-----8-----8-----8-|------5-----5-----5-----5-|
G|----9-----9-----9-----9---|----6-----6-----6-----6---|
D|--------------9-----------|--------------7-----------|
A|--7-----------------------|--------------------------|
E|--------------------------|--5-----------------------|

  Dm          C#m            Bm          Bm/A
E|--------5-----------4-----|--------2-----------2-----|
B|------6-----6-----5-----5-|------3-----3-----3-----3-|
G|----7-----7-----6-----6---|----4-----4-----4-----4---|
D|--------------------------|--------------------------|
A|--5-----------4-----------|--2-----------0-----------|
E|--------------------------|--------------------------|

  A                          G           F#
E|--------5-----------5-----|--------3-----------2-----|
B|------5-----5-----5-----5-|------3-----3-----2-----2-|
G|----6-----6-----6-----6---|----4-----4-----3-----3---|
D|--------------7-----------|--------------------------|
A|--------------------------|--------------------------|
E|--5-----------------------|--3-----------2-----------|

  Bm          Bm/A           E           Esus4 E
E|--------2-----------2-----|--------0---------0-----0-|
B|------3-----3-----3-----3-|------0-----0---0-----0---|
G|----4-----4-----4-----4---|----1-----1---2-----1-----|
D|--------------------------|--------------------------|
A|--2-----------0-----------|--------------------------|
E|--------------------------|--0-----------------------|

  Dm          Dm/C           Dm/B        Dm/A#
E|--------1-----------1-----|--------1-----------1-----|
B|------3-----3-----3-----3-|------3-----3-----3-----3-|
G|----2-----2-----2-----2---|----2-----2-----2-----2---|
D|--0-----------------------|--------------------------|
A|--------------3-----------|--2-----------1-----------|
E|--------------------------|--------------------------|

  Dm               Dmmaj7             Dm7             Dm6
E|----------10---------------9-------|----------8---------------7-------|
B|-------10-------10------10------10-|-------10------10------10------10-|
G|----10-------10------10------10----|----10------10------10------10----|
D|--0----------------0---------------|--0---------------0---------------|
A|-----------------------------------|----------------------------------|
E|-----------------------------------|----------------------------------|

 Dm               Dmmaj7             Dm7             Dm6
E|----------10---------------9-------|----------8---------------7-------|
B|-------10-------10------10------10-|-------10------10------10------10-|
G|----10-------10------10------10----|----10------10------10------10----|
D|--0----------------0---------------|--0---------------0---------------|
A|-----------------------------------|----------------------------------|
E|-----------------------------------|----------------------------------|

  C                           C
E|--------8------------8-----|--------8------------8-----|
B|------8-----8------8-----8-|------8-----8------8-----8-|
G|----9-----9------9-----9---|----9-----9------9-----9---|
D|--------------10-----------|--------------10-----------|
A|---------------------------|---------------------------|
E|--8------------------------|--8------------------------|

  Fm                              G
E|---------8--------------8------|--------3-----------3-----|
B|-------9------9-------9------9-|------3-----3-----3-----3-|
G|----10-----10------10-----10---|----4-----4-----4-----4---|
D|----------------10-------------|--------------5-----------|
A|--8----------------------------|--------------------------|
E|-------------------------------|--3-----------------------|

  C           E              Am          C
E|--------0-----------0-----|--------0-----------0-----|
B|------1-----1-----0-----0-|------1-----1-----1-----1-|
G|----0-----0-----1-----1---|----2-----2-----0-----0---|
D|--------------------------|--------------------------|
A|--3-----------------------|--0-----------3-----------|
E|--------------0-----------|--------------------------|

  F                          G
E|--------1-----------1-----|--------3-----------3-----|
B|------1-----1-----1-----1-|------3-----3-----3-----3-|
G|----2-----2-----2-----2---|----4-----4-----4-----4---|
D|--------------3-----------|--------------5-----------|
A|--------------------------|--------------------------|
E|--1-----------------------|--3-----------------------|

  C           E              Am          C
E|--------0-----------0-----|--------0-----------0-----|
B|------1-----1-----0-----0-|------1-----1-----1-----1-|
G|----0-----0-----1-----1---|----2-----2-----0-----0---|
D|--------------------------|--------------------------|
A|--3-----------------------|--0-----------3-----------|
E|--------------0-----------|--------------------------|

  F                          Dm               Dmmaj7
E|--------1-----------1-----|----------10---------------9-------|
B|------1-----1-----1-----1-|-------10-------10------10------10-|
G|----2-----2-----2-----2---|----10-------10------10------10----|
D|--------------3-----------|--0----------------0---------------|
A|--------------------------|-----------------------------------|
E|--1-----------------------|-----------------------------------|

  Dm7             Dm6                C
E|----------8---------------7-------|--------8------------8-----|
B|-------10------10------10------10-|------8-----8------8-----8-|
G|----10------10------10------10----|----9-----9------9-----9---|
D|--0---------------0---------------|--------------10-----------|
A|----------------------------------|---------------------------|
E|----------------------------------|--8------------------------|

  C                           Fm
E|--------8------------8-----|---------8--------------8------|
B|------8-----8------8-----8-|-------9------9-------9------9-|
G|----9-----9------9-----9---|----10-----10------10-----10---|
D|--------------10-----------|----------------10-------------|
A|---------------------------|--8----------------------------|
E|--8------------------------|-------------------------------|

  G                          G
E|--------3-----------3-----|--------3-----------3-----|
B|------3-----3-----3-----3-|------3-----3-----3-----3-|
G|----4-----4-----4-----4---|----4-----4-----4-----4---|
D|--------------5-----------|--------------5-----------|
A|--------------------------|--------------------------|
E|--3-----------------------|--3-----------------------|

  Dm               Dmmaj7             Dm7             Dm6
E|----------10---------------9-------|----------8---------------7-------|
B|-------10-------10------10------10-|-------10------10------10------10-|
G|----10-------10------10------10----|----10------10------10------10----|
D|--0----------------0---------------|--0---------------0---------------|
A|-----------------------------------|----------------------------------|
E|-----------------------------------|----------------------------------|

  Dm               Dmmaj7             Dm7             Dm6
E|----------10---------------9-------|----------8---------------7-------|
B|-------10-------10------10------10-|-------10------10------10------10-|
G|----10-------10------10------10----|----10------10------10------10----|
D|--0----------------0---------------|--0---------------0---------------|
A|-----------------------------------|----------------------------------|
E|-----------------------------------|----------------------------------|

  Dm               Dmmaj7             Dm7             Dm6
E|----------10---------------9-------|----------8---------------7-------|
B|-------10-------10------10------10-|-------10------10------10------10-|
G|----10-------10------10------10----|----10------10------10------10----|
D|--0----------------0---------------|--0---------------0---------------|
A|-----------------------------------|----------------------------------|
E|-----------------------------------|----------------------------------|

  Dm               Dmmaj7             Dm7             Dm6
E|----------10---------------9-------|----------8---------------7-------|
B|-------10-------10------10------10-|-------10------10------10------10-|
G|----10-------10------10------10----|----10------10------10------10----|
D|--0----------------0---------------|--0---------------0---------------|
A|-----------------------------------|----------------------------------|
E|-----------------------------------|----------------------------------|

  C                           C
E|--------8------------8-----|--------8------------8-----|
B|------8-----8------8-----8-|------8-----8------8-----8-|
G|----9-----9------9-----9---|----9-----9------9-----9---|
D|--------------10-----------|--------------10-----------|
A|---------------------------|---------------------------|
E|--8------------------------|--8------------------------|

  Dm               Dmmaj7             Dm7             Dm6
E|----------10---------------9-------|----------8---------------7-------|
B|-------10-------10------10------10-|-------10------10------10------10-|
G|----10-------10------10------10----|----10------10------10------10----|
D|--0----------------0---------------|--0---------------0---------------|
A|-----------------------------------|----------------------------------|
E|-----------------------------------|----------------------------------|

  Em                         A
E|--------7-----------7-----|--------5-----------5-----|
B|------8-----8-----8-----8-|------5-----5-----5-----5-|
G|----9-----9-----9-----9---|----6-----6-----6-----6---|
D|--------------9-----------|--------------7-----------|
A|--7-----------------------|--------------------------|
E|--------------------------|--5-----------------------|

  Dm          C#m            Bm          Bm/A
E|--------5-----------4-----|--------2-----------2-----|
B|------6-----6-----5-----5-|------3-----3-----3-----3-|
G|----7-----7-----6-----6---|----4-----4-----4-----4---|
D|--------------------------|--------------------------|
A|--5-----------4-----------|--2-----------0-----------|
E|--------------------------|--------------------------|

  A                          G           F#
E|--------5-----------5-----|--------3-----------2-----|
B|------5-----5-----5-----5-|------3-----3-----2-----2-|
G|----6-----6-----6-----6---|----4-----4-----3-----3---|
D|--------------7-----------|--------------------------|
A|--------------------------|--------------------------|
E|--5-----------------------|--3-----------2-----------|

  Bm          Bm/A           E           Esus4 E
E|--------2-----------2-----|--------0---------0-----0-|
B|------3-----3-----3-----3-|------0-----0---0-----0---|
G|----4-----4-----4-----4---|----1-----1---2-----1-----|
D|--------------------------|--------------------------|
A|--2-----------0-----------|--------------------------|
E|--------------------------|--0-----------------------|

  Dm          Dm/C           Dm/B        Dm/A#
E|--------1-----------1-----|--------1-----------1-----|
B|------3-----3-----3-----3-|------3-----3-----3-----3-|
G|----2-----2-----2-----2---|----2-----2-----2-----2---|
D|--0-----------------------|--------------------------|
A|--------------3-----------|--2-----------1-----------|
E|--------------------------|--------------------------|

  Dm               Dmmaj7             Dm7             Dm6
E|----------10---------------9-------|----------8---------------7-------|
B|-------10-------10------10------10-|-------10------10------10------10-|
G|----10-------10------10------10----|----10------10------10------10----|
D|--0----------------0---------------|--0---------------0---------------|
A|-----------------------------------|----------------------------------|
E|-----------------------------------|----------------------------------|

  Dm               Dmmaj7             Dm7             Dm6
E|----------10---------------9-------|----------8---------------7-------|
B|-------10-------10------10------10-|-------10------10------10------10-|
G|----10-------10------10------10----|----10------10------10------10----|
D|--0----------------0---------------|--0---------------0---------------|
A|-----------------------------------|----------------------------------|
E|-----------------------------------|----------------------------------|

  C                           C
E|--------8------------8-----|--------8------------8-----|
B|------8-----8------8-----8-|------8-----8------8-----8-|
G|----9-----9------9-----9---|----9-----9------9-----9---|
D|--------------10-----------|--------------10-----------|
A|---------------------------|---------------------------|
E|--8------------------------|--8------------------------|

  Fm                              G
E|---------8--------------8------|--------3-----------3-----|
B|-------9------9-------9------9-|------3-----3-----3-----3-|
G|----10-----10------10-----10---|----4-----4-----4-----4---|
D|----------------10-------------|--------------5-----------|
A|--8----------------------------|--------------------------|
E|-------------------------------|--3-----------------------|

  C           E              A           C
E|--------0-----------0-----|--------0-----------0-----|
B|------1-----1-----0-----0-|------1-----1-----1-----1-|
G|----0-----0-----1-----1---|----2-----2-----0-----0---|
D|--------------------------|--------------------------|
A|--3-----------------------|--0-----------3-----------|
E|--------------0-----------|--------------------------|

  F                          G
E|--------1-----------1-----|--------3-----------3-----|
B|------1-----1-----1-----1-|------3-----3-----3-----3-|
G|----2-----2-----2-----2---|----4-----4-----4-----4---|
D|--------------3-----------|--------------5-----------|
A|--------------------------|--------------------------|
E|--1-----------------------|--3-----------------------|

  C           E              A           C
E|--------0-----------0-----|--------0-----------0-----|
B|------1-----1-----0-----0-|------1-----1-----1-----1-|
G|----0-----0-----1-----1---|----2-----2-----0-----0---|
D|--------------------------|--------------------------|
A|--3-----------------------|--0-----------3-----------|
E|--------------0-----------|--------------------------|

  F                          G
E|--------1-----------1-----|--------3-----------3-----|
B|------1-----1-----1-----1-|------3-----3-----3-----3-|
G|----2-----2-----2-----2---|----4-----4-----4-----4---|
D|--------------3-----------|--------------5-----------|
A|--------------------------|--------------------------|
E|--1-----------------------|--3-----------------------|

  C           E              A           C
E|--------0-----------0-----|--------0-----------0-----|
B|------1-----1-----0-----0-|------1-----1-----1-----1-|
G|----0-----0-----1-----1---|----2-----2-----0-----0---|
D|--------------------------|--------------------------|
A|--3-----------------------|--0-----------3-----------|
E|--------------0-----------|--------------------------|

  F                          G
E|--------1-----------1-----|--------3-----------3-----|
B|------1-----1-----1-----1-|------3-----3-----3-----3-|
G|----2-----2-----2-----2---|----4-----4-----4-----4---|
D|--------------3-----------|--------------5-----------|
A|--------------------------|--------------------------|
E|--1-----------------------|--3-----------------------|

  C           E              A           C
E|--------0-----------0-----|--------0-----------0-----|
B|------1-----1-----0-----0-|------1-----1-----1-----1-|
G|----0-----0-----1-----1---|----2-----2-----0-----0---|
D|--------------------------|--------------------------|
A|--3-----------------------|--0-----------3-----------|
E|--------------0-----------|--------------------------|

  F                          Dm               Dmmaj7
E|--------1-----------1-----|----------10---------------9-------|
B|------1-----1-----1-----1-|-------10-------10------10------10-|
G|----2-----2-----2-----2---|----10-------10------10------10----|
D|--------------3-----------|--0----------------0---------------|
A|--------------------------|-----------------------------------|
E|--1-----------------------|-----------------------------------|

  Dm7             Dm6                C
E|----------8---------------7-------|--------8------------8-----|
B|-------10------10------10------10-|------8-----8------8-----8-|
G|----10------10------10------10----|----9-----9------9-----9---|
D|--0---------------0---------------|--------------10-----------|
A|----------------------------------|---------------------------|
E|----------------------------------|--8------------------------|

  C                           Fm
E|--------8------------8-----|---------8--------------8------|
B|------8-----8------8-----8-|-------9------9-------9------9-|
G|----9-----9------9-----9---|----10-----10------10-----10---|
D|--------------10-----------|----------------10-------------|
A|---------------------------|--8----------------------------|
E|--8------------------------|-------------------------------|

  G                          G
E|--------3-----------3-----|--------3-----------3-----|
B|------3-----3-----3-----3-|------3-----3-----3-----3-|
G|----4-----4-----4-----4---|----4-----4-----4-----4---|
D|--------------5-----------|--------------5-----------|
A|--------------------------|--------------------------|
E|--3-----------------------|--3-----------------------|

  C           C/B            Am          Am/G
E|--------0-----------0-----|--------0-----------0-----|
B|------1-----1-----1-----1-|------1-----1-----1-----1-|
G|----0-----0-----0-----0---|----2-----2-----2-----2---|
D|--------------------------|--------------------------|
A|--3-----------2-----------|--0-----------------------|
E|--------------------------|--------------3-----------|

  F           Em             Dm               Dmmaj7
E|--------1-----------0-----|----------10---------------9-------|
B|------1-----1-----0-----0-|-------10-------10------10------10-|
G|----2-----2-----0-----0---|----10-------10------10------10----|
D|--------------------------|--0----------------0---------------|
A|--------------------------|-----------------------------------|
E|--1-----------0-----------|-----------------------------------|

  Dm7             Dm6                C
E|----------8---------------7-------|--------8------------8-----|
B|-------10------10------10------10-|------8-----8------8-----8-|
G|----10------10------10------10----|----9-----9------9-----9---|
D|--0---------------0---------------|--------------10-----------|
A|----------------------------------|---------------------------|
E|----------------------------------|--8------------------------|

  C7                               C
E|---------8--------------8------|---8----------------| |
B|------11-----11------11-----11-|---8----------------| |
G|----9------9-------9------9----|---9----------------| |
D|----------------10-------------|--10----------------| |
A|-------------------------------|--10----------------| |
E|--8----------------------------|---8----------------| |
Composição de Silvio Rodríguez
19 exibições
    • ½ Tom
    • Am
    • Bbm
    • Bm
    • Cm
    • C#m
    • Dm
    • Ebm
    • Em
    • Fm
    • F#m
    • Gm
    • G#m
  • Adicionar à lista

    0 comentários

    Ver todos os comentários

    Conseguiu tocar?

    0 Tocaram 0 Ainda não

    Grave um vídeo tocando Ojalá e nos envie!

    00:00 / 00:00
    Outros vídeos desta música
    Repetir Qualidade Automático
    Outros vídeos desta música
    00:00 / 00:00
    Automático

    Cifra Club Pro

    Aproveite o Cifra Club com benefícios exclusivos e sem anúncios
    Cifra Club Pro
    Aproveite o Cifra Club com benefícios exclusivos e sem anúncios
    OK