Cifra Club

Aprenda

Welcome to my Life

Simple Plan

Cifra: Principal (violão e guitarra)
tom: Db
(intro)

E|--------------------------------------------------------|
B|--------------------------------------------------------|
G|-6--6--6-6----------------------------------------------|
D|-6--6--6-6---8--8--8-8---4--4--4-4---6--6--6-6----------|
A|-4--4--4-4---8--8--8-8---4--4--4-4---6--6--6-6----------|
E|-------------6--6--6-6---2--2--2-2---4--4--4-4----------|

(pre-refrão)
E|--------------------------------------------------|
B|--------------------------------------------------|
G|--------------------------------------------------|
D|-4-----8------4--------6~-------------------------|
A|-4-----8------4------s-6~-------------------------|
E|-2-----6------2--------4~-------------------------|

(refrão)
E|--------------------------------------------------|
B|--------------------------------------------------|
G|---6--------------6xxx---------6------------------|(2x)
D|-6-6--8xxx--4xxx--6xxx-6xxx--6-6------------------|
A|-6-4--8xxx--4xxx--4xxx-6xxx--6-4------------------|
E|-4----6xxx--2xxx-------4xxx--4--------------------|

E|---------------------------------------------------|
B|---------------------------------------------------|
G|-------------6666-------------88888888-------------|
D|-8888--4444--6666--6666-------88888888----3-4------|
A|-8888--4444--4444--6666-------66666666-s--3-4------|
E|-6666--2222--------4444-------------------1-2------|

E|--9-9-9-9-9-9-11-11-9-9-9-9-9-9-11-11|
B|--9-9-9-9-9-9-9--9--9-9-9-9-9-9-9--9-|
G|-------------------------------------|
D|-------------------------------------|
A|-------------------------------------|
E|-------------------------------------|

E|--------------------------------------------------------|
B|--------------------------------------------------------|
G|------6------6------6666-----------6------6-8888-10-11~-|
D|-4444-6-8888-6-4444-6666-6666-4444-6-8888-6-8888-10-11~-|
A|-4444-4-8888-4-4444-4444-6666-4444-4-8888-4-6666-8--9~--|
E|-2222---6666---2222------4444-2222---6666---------------|

            Db
      Do you ever feel like breaking down?
             Bbm
      Do you ever feel out of place?
           Gb
      Like somehow you just don't belong,
          Ab
      and no one understands you.
             Db
      Do you ever wanna run away?
             Bbm
      Do you lock yourself in your room?
               Gb
      With the radio on turned up so loud,
          Ab
      That no one hears you screaming.

             Gb
          No you don't know what its like
               Bbm
          When nothing feels alright
              Gb                                      Ab
          You don't know what its like to be like me...

               Bbm           Gb           Db              Ab
       To be hurt, to feel lost, to be left out in the dark
             Bbm                Gb                   Db            Ab
       To be kicked when you're down, to feel like you've been pushed around
             Bbm            Gb                   Db                 Ab
       To be on the edge of breaking down, and no one's there to save you
       Ebm                           Gb
       No you don't know what its like
                      Db
       Welcome to my life
                 Db
         Do you wanna be somebody else?
               Bbm
       Are you sick of being so left out?
               Gb
       Are you desperate to find something more,
       Ab
       before your life is over?
               Db
       Are you stuck inside a world you hate?
               Bbm
       Are you sick of everyone around?
                Gb
       With their big fake smiles and stupid lies,
             Ab
       While deep inside your bleeding

            Gb
          No you don't know what its like
               Bbm
          When nothing feels alright
              Gb                                   Ab
          You don't know what its like to be like me...

               Bbm           Gb           Db        Ab
       To be hurt, to feel lost, to be left out in the dark
             Bbm                Gb                   Db         Ab
       To be kicked when you're down, to feel like you've been pushed around
             Bbm            Gb                   Db                 Ab
       To be on the edge of breaking down, and no one's there to save you
       Ebm                             Gb
       No you don't know what its like
                        Db
       Welcome to my life

         Gb                           Db
      No one ever lies straight to your face
          Bbm                       Db
      And no one ever stabbed you in the back
      Gb
      You might think I'm happy
              Db            Ab
      But I'm not gonna be okay
      Gb                                       Db
      Everybody always gave you what you wanted
          Bbm                                  Db
      You never had to work it was always there
          Ebm                               F    Ab
      You don't know what it's like what it's like...

               Bbm           Gb           Db          Ab
       To be hurt, to feel lost, to be left out in the dark
             Bbm                Gb                   Db            Ab
       To be kicked when you're down, to feel like you've been pushed around
             Bbm            Gb                   Db                 Ab
       To be on the edge of breaking down, and no one's there to save you
       Ebm                            F
       No you don't know (what it's like)

               Bbm           Gb           Db          Ab
       To be hurt, to feel lost, to be left out in the dark
             Bbm                Gb                   Db          Ab
       To be kicked when you're down, to feel like you've been pushed around
             Bbm            Gb                   Db                 Ab
       To be on the edge of breaking down, when no one's there to save you
       Ebm                          F
       No you don't know what its like
        Gb              Db
       Welcome to my life
              Gb     Ab
       Welcome to my life
                          Db
       Welcome to my life..
Composição de Chuck Comeau / Pierre Bouvier
Colaboração e revisão:
420.665 exibições
  • Simplificar cifra
    • ½ Tom
    • A
    • Bb
    • B
    • C
    • Db
    • D
    • Eb
    • E
    • F
    • F#
    • G
    • Ab
  • Adicionar à lista

    0 comentários

    Ver todos os comentários

    Conseguiu tocar?

    47 Tocaram 2 Ainda não

    Grave um vídeo tocando Welcome to my Life e nos envie!

    00:00 / 00:00
    Outros vídeos desta música
    Repetir Qualidade Automático
    Outros vídeos desta música
    00:00 / 00:00
    Automático

    Cifra Club Pro

    Aproveite o Cifra Club com benefícios exclusivos e sem anúncios
    Cifra Club Pro
    Aproveite o Cifra Club com benefícios exclusivos e sem anúncios
    OK