Cifra Club

Feel It

Sister Hazel

Cifra: Principal (violão e guitarra)
Selo Cifra Club: esta cifra foi revisada para atender aos critérios oficiais da nossa Equipe de Qualidade.
tom: D
E|---3-----2------3----------------------------------------------------------|
B|---3-----3------3----------------------------------------------------------|
G|---0-----2------0----------------------------------------------------------|
D|---0-----0------2----------------------------------------------------------|
A|---2-----0------3----------------------------------------------------------|
E|---3-----0-----------------------------------------------------------------|

So how you play out these chords pretty much looks like this in a tab:

E|-------3-3-3----3p2p0h2--------3-------------------------------------------|
B|-------3-3-3----3-3--3---------3-------------------------------------------|
G|-------0-0-0----2-2--2-----0---3-------------------------------------------|
D|---0-----------------------2-----------------------------------------------|
A|---3-----------------------3-----------------------------------------------|
E|---3-----------------------------------------------------------------------|

If that makes any sense! pull of 3-2-0 while you strum the D chord and then 
hammer on again! 

Just remember always go G - D - C7 - D then repeat. 
To the song, he starts of just down stroke once on the chords in beginning 
and build up towards the chorus. Anyway best of luck!
Leave a comment below if you wonder anything!

Intro: 
G - D - C7 - D x4


G            D           C7      D
There's been days I've fallen
G                   D                   C7        D
And walked away the times I should have stayed.
  G                 D                  C7   D
I looked away, yeah looked away ... so far away -
    G                D            C7       D
and when you asked I said I'm not afraid. 

[BRIDGE]
C7              D          
But now I can't hold it - hold it
C7                           D
Flash a frozen smile when it boils down inside.
C7             D
No now I can't hold it - hold it
C7
Just a little crack ...
             D
And then the walls come tumblin' down 

[CHORUS]
      G    D   C7                 D
And I Feel It. It's my time don't try to steal it.
G    D   C7      D
Feel it. Reach inside
G    D   C7                D
Feel it. If you ask well I won't conceal it.
G    D   C7                   D              G
Feel it. I used to wonder but now I finally know ... 


G             D             C7     D
Papa said the sun it also rises.
G                    D                C7    D
But when I turn it's falling from the sky.
   G                 D             C7    D
It slips away - yeah slips away So far away.
    G                 D            C7    D
And leaves me staring only at the night. 
00:00 / 00:00
Outros vídeos desta música
Repetir
Outros vídeos desta música
7 exibições
    • ½ Tom
    • A
    • Bb
    • B
    • C
    • Db
    • D
    • Eb
    • E
    • F
    • F#
    • G
    • Ab
  • Adicionar à lista

Afinação da cifra

Afinador online

    0 comentários

    Ver todos os comentários

    Entre para o Cifra Club PRO

    Tenha acesso a benefícios exclusivos no App e no Site

    • Chega de anúncios

    • Mais recursos no app do Afinador

    • Atendimento Prioritário

    • Aumente seu limite de lista

    • Ajude a produzir mais conteúdo

    00:00 / 00:00

    Cifra Club Pro

    Aproveite o Cifra Club com benefícios exclusivos e sem anúncios
    Cifra Club Pro
    Aproveite o Cifra Club com benefícios exclusivos e sem anúncios
    OK