Cifra Club

Ball And Chain

Social Distortion

Cifra: Principal (violão e guitarra)
Selo Cifra Club: esta cifra foi revisada para atender aos critérios oficiais da nossa Equipe de Qualidade.
tom: Db (forma dos acordes no tom de D) Afinação: Eb Ab Db Gb Bb Eb
Intro:  D  A  G  D
        D  A  G  D

SOLO:
|-----------------------------------------------------------------------|
|-----------------------------------------------------------------------|
|-----------------------------------------------------------------------|
|-7-5-------------------------------------------------------------------|
|-----7-5----7-7-5-7s9-9-9-9-9-9-9s7-7-7-7-7-7-7s5-5-5-5---5h7--5--5-5--|
|--------------------------------------------------------7--------------|

|---------------------------------------------------------------------|
|---------------------------------------------------------------------|
|-------------------------------------7-7---7-7-7h9-7------9-9-7-9s11-|
|-----------7-7-7-7h9-7-7-7-7-7-7-7h9-----9---------------------------|
|-7-7-5-7s9-----------------------------------------------------------|
|---------------------------------------------------------------------|

|----------------------------9-9----9-9----9-9----9-9----9-9-----------|
|-9-9--9---------------------9-9h11-9-9h11-9-9h11-9-9h11-9-9-----------|
|--------11-11-11s9-9-9-9-11-------------------------------------------|
|----------------------------------------------------------------------|
|----------------------------------------------------------------------|
|----------------------------------------------------------------------|

|----------------------------------------------------------------------|
|------------9-9--9----------------------------------------------------|
|-9-9-7-9s11--------11-11-11s9-9-9-9-9-9-9s7-7-7--7---9-7--------------|
|---------------------------------------------------9------------------|
|----------------------------------------------------------------------|
|----------------------------------------------------------------------|

D                                 A
Well it's been ten years and a thousand tears
      G                   D
And look at the mess I'm in
D                     A
D broken nose and a broken heart
     G              D
An empty bottle of gin
        D          A
Well I sit and I pray
        G             D
In my broken down Chevrolet
D                      A
While I'm singin' to myself
         G                 D
There's got to be another way

Refrão:
D                A
Take away, take away
       G                  D
Take away this ball and chain
D                    A
I'm lonely and I'm tired
        G                  D
And I can't take any more pain
D                A
Take away, take away
      G           D
Never to return again
D                A
Take away, take away
       G                             D
Take away, take away this ball and chain

D  A  G  D (x2)

D                              A
Well I've searched and I've searched
     G                D
To find the perfect life
D                       A
D brand new car and a brand new suit
        G                A
I even got me a little wife
D                    A
But whenever I have gone
        G                    D
I was sure to find myself there
D                      A
You can run all your life
         G     D
But not go anywhere

(Repete o Refrão)

Solo:
|-----------------------------------------------------------------------|
|-----------------------------------------------------------------------|
|-----------------------------------------------------------------------|
|-7-5-------------------------------------------------------------------|
|-----7-5----7-7-5-7s9-9-9-9-9-9-9s7-7-7-7-7-7-7s5-5-5-5---5h7--5--5-5--|
|--------------------------------------------------------7--------------|

|---------------------------------------------------------------------|
|---------------------------------------------------------------------|
|-------------------------------------7-7---7-7-7h9-7------9-9-7-9s11-|
|-----------7-7-7-7h9-7-7-7-7-7-7-7h9-----9---------------------------|
|-7-7-5-7s9-----------------------------------------------------------|
|---------------------------------------------------------------------|

|----------------------------9-9----9-9----9-9----9-9----9-9---|
|-9-9--9---------------------9-9h11-9-9h11-9-9h11-9-9h11-9-9---|
|--------11-11-11s9-9-9-9-11-----------------------------------|
|--------------------------------------------------------------|
|--------------------------------------------------------------|
|--------------------------------------------------------------|

|----------------------------------9-9-9-9----9-9----9-9----9-9----9-9-|
|------------9-9--9----------------9-9-9-9h11-9-9h11-9-9h11-9-9h11-9-9-|
|-9-9-7-9s11--------11-11-11s9-9-9-------------------------------------|
|----------------------------------------------------------------------|
|----------------------------------------------------------------------|
|----------------------------------------------------------------------|

D                              A
Well I'll pass the bar on the way
        G           D
To my dingy hotel room
D                A
I spent all my money
         G                      D
Been drinkin' since half past noon
D                        A
I'll wake there in the mornin'
     G                   D
Or maybe in the county jail
D                        A
Times are hard getting harder
              G                    D
I'm born to lose and destined to fail

(Repete o refrão)

A música fica o mesmo ritmo até o fim
Outros vídeos desta música
    11.167 exibições
      • ½ Tom
      • A
      • Bb
      • B
      • C
      • Db
      • D
      • Eb
      • E
      • F
      • F#
      • G
      • Ab
    • Adicionar à lista

    Afinação da cifra

    Afinador online

      0 comentários

      Ver todos os comentários

      Entre para o Cifra Club PRO

      Tenha acesso a benefícios exclusivos no App e no Site

      • Chega de anúncios

      • Badges exclusivas

      • Mais recursos no app do Afinador

      • Atendimento Prioritário

      • Aumente seu limite de lista

      • Ajude a produzir mais conteúdo

      Cifra Club Pro

      Aproveite o Cifra Club com benefícios exclusivos e sem anúncios
      Cifra Club Pro
      Aproveite o Cifra Club com benefícios exclusivos e sem anúncios
      OK