Cifra Club

Story Of My Life

Social Distortion

Cifra: Principal (violão e guitarra)
Selo Cifra Club: esta cifra foi revisada para atender aos critérios oficiais da nossa Equipe de Qualidade.
tom: F# (forma dos acordes no tom de G) Afinação: Eb Ab Db Gb Bb Eb
Guitarra Solo:
    G            C               D
E|-----------------------------------------------|
B|-----------------------------------------------|
G|-----------------------0----0----0-------------|
D|------------0------0h2----2----2-----0-2p0-----|   (2x)
A|-------0h2-----3-3-------------------------2p0-|
E|--3-3------------------------------------------|

Guitarra Ritmo:
     G  C  D
E|--3-----2-2--2--2--|
B|--3--1--3-3--3--3--|
G|--0--0--2-2--2--2--|
D|--0--2-------------|   (2x)
A|--0--3-------------|
E|--3----------------|

Solo:
E|---------------------------------------------------------------------------|
B|--------------------------------------------------------------3------------|
G|-------------------------------------------0-2-2-2---0---2/4----4p2----0~--|
D|-----------2--0~--0---2p0---------------0---------------------------2------|
A|-----2--3-----------------2p0-----2--3-------------------------------------|
E|--3----------------------------3-------------------------------------------|

E|-------------------------------3--3h5--3-------------3--5---7-7-7-7-7~-----|
B|-----------3--3h5--3~--3--3h5--------------3---5--5------------------------|
G|---0--2/4------------------------------------------------------------------|
D|---------------------------------------------------------------------------|
A|---------------------------------------------------------------------------|
E|---------------------------------------------------------------------------|

Guitarra Ritmo 1 - Refrão e Base para solo inicial:
     G                       C                       D                       D
E|--3----3----3--3--3----|-----------------------|--2----2----2--2--2----|--2----2----2--2--2----|
B|--0----0----0--0--0----|--1----1----1--1--1----|--2----2----2--2--2----|--2----2----2--2--2----|
G|--0----0----0--0--0----|--0----0----0--0--0----|--3----3----3--3--3----|--3----3----3--3--3----|
D|--0----0----0--0--0----|--2----2----2--2--2----|--2----2----2--2--2----|--2----2----2--2--2----|
A|--2----2----2--2--2----|--3----3----3--3--3----|--0----0----0--0--0----|--0----0----0--0--0----|
E|--3----3----3--3--3----|-----------------------|-----------------------|-----------------------|

Da da da da
Da da da da
Da da da da
Story of my life

Guitarra Ritmo 2 - nos versos (RM): Palm Mute nos dois power chords abaixo
            PM              PM              PM              PM
E|-------------------------------------------------------------------
B|-------------------------------------------------------------------
G|------------------5--5---5--5--5--7--7---7--7--7--7--7---7--7--7---
D|--5--5---5--5--5--5--5---5--5--5--7--7---7--7--7--7--7---7--7--7---
A|--5--5---5--5--5--3--3---3--3--3--5--5---5--5--5--5--5---5--5--5---
E|--3--3---3--3--3---------------------------------------------------

Guitarra Solo nos versos: Mesmo tempo da ritmo
            PM              PM              PM
E|--------------------------------------------------------------
B|--------------------------------------------------------------
G|------------------5--5---5--5--5--7--7---7--7--7--------------
D|--5--5---5--5--5--5--5---5--5--5--7--7---7--7--7--0-2p0-------
A|--5--5---5--5--5--3--3---3--3--3--5--5---5--5--5--------2p0---
E|--3--3---3--3--3--------------------------------------------3-

Verso 1:
(RM)
Well high school seemed like such a blur
(RM)
I didn't have much interest in sports or school elections
(RM)
And in class I dreamed all day

Nessa parte do verso:

Guitarra Solo:
E|-------------
B|-------------
G|-------------
D|--------2-0~-
A|----2-3------
E|--3----------

Guitarra Ritmo:
      G  C  D
E|--3-----2~---
B|--3--1--3~---
G|--0--0--2~---
D|--0--2--0~---
A|--0--3-------
E|--3----------
                      G
About a rock 'n' roll weekend
C      D
Ah ah ah ah

Verso 2:
And the girl in the front of the room
So close yet so far ya know she never seemed to notice
That this silly schoolboy crush
Wasn't just pretend
Ah ah ah ah

refão com Guitarra Ritmo 1:
Life goes by so fast
You only want to do what you think is right
Close your eyes then it's past
Story of my life
Story of my life
La la la la
Story of my life
Story of my life

Verso 3:
And I went down to my old neighborhood
The faces have all changed, there's no one there left to talk to
And the pool hall I loved as a kid
Is now a Seven-Eleven
Ah ah ah ah

Verso 4:
And I went downtown to look for a job
I had no training, no experience to speak of
And I looked at the holes in my jeans
And I turned and headed back
Ah ah ah ah

(refrão)

Solo:
E|------------------------------------------------------------------------------
B|-------------------------------------------------------------------3----------
G|--------------------------------------------0---2--2--2---0---2/4----4p2--0---
D|-----------2--0--0---2p0------------------------------------------------------
A|-----2--3-----------------2p0---------2--3------------------------------------
E|--3----------------------------3--3-------------------------------------------

E|----------------------------------3--3h5--3-------------3--5---7---7-7-7--5---3-5-3-------------
B|---------------3--3h5--3--3--3h5--------------3---5--5-------------------------------3--5---5-3-
G|----0--0--2/4-----------------------------------------------------------------------------------
D|-2----------------------------------------------------------------------------------------------
A|------------------------------------------------------------------------------------------------
E|------------------------------------------------------------------------------------------------

E|--------------------------------------------------------------------------------------7----7----
B|--------------------------------------------------------------------------------------6--r-6--8-
G|--------------------------------------------------0--2-2--4---------------0--2-2--4---7----7--9-
D|-0--2p0----------------------2--0----0--0---2--2--------------0--0---2-2------------------------
A|---------2p0---------2--3-3---------------------------------------------------------------------
E|---------------3--3-----------------------------------------------------------------------------
  pm=====                           pm====
E|---------------------7-----7---------------------------------7-------------------------5-----7--
B|--8-8----8---8---7---6--r--6---8----8--8---8--8---7-----8--8----8---------8------7--7------5----
G|--9-9----9---9---7---7-----7---9----9--9---9--9---7------------------9--9----9------------------
D|-----------------7--------------------------------7---------------------------------------------
A|------------------------------------------------------------------------------------------------
E|------------------------------------------------------------------------------------------------

E|----------------7---------------------------5---------------------------------------------------
B|----------8--8-----8---------8--------7--7----7-------------------------------------------------
G|-9--7------------------9--9-----9---------------------------------------------------------------
D|------------------------------------------------------------------------------------------------
A|------------------------------------------------------------------------------------------------
E|------------------------------------------------------------------------------------------------

Verso 5:
Good times come and good times go
I only wish the good times would last a little longer
I think about the good times we had
And why they had to end
Ah ah ah ah

Verso 6:
So I sit at the edge of my bed
I strum my guitar and I sing an outlaw love song
Thinking about what you're doing now
And when you're coming back
Ah ah ah ah

(refrão)
Outros vídeos desta música
    66.095 exibições
      • ½ Tom
      • A
      • Bb
      • B
      • C
      • Db
      • D
      • Eb
      • E
      • F
      • F#
      • G
      • Ab
    • Adicionar à lista

    Afinação da cifra

    Afinador online

      0 comentários

      Ver todos os comentários

      Entre para o Cifra Club PRO

      Tenha acesso a benefícios exclusivos no App e no Site

      • Chega de anúncios

      • Mais recursos no app do Afinador

      • Atendimento Prioritário

      • Aumente seu limite de lista

      • Ajude a produzir mais conteúdo

      Cifra Club Pro

      Aproveite o Cifra Club com benefícios exclusivos e sem anúncios
      Cifra Club Pro
      Aproveite o Cifra Club com benefícios exclusivos e sem anúncios
      OK