Cifra Club

la ciudad de la furia (unplugged)

Soda Stereo

Cifra: Principal (violão e guitarra)
Selo Cifra Club: esta cifra foi revisada para atender aos critérios oficiais da nossa Equipe de Qualidade.
tom: Em
 Em
E|----------------------------------------------10---------------10-|
B|---------------------------------------10-12----12-10-12-10|
G|----|
D|-7~~~~--7--9--11--7--9---------7-9-11----------------------------|
A|-------------------------9~~~~------------------------------------|
E|------------------------------------------------------------------|
E|------------------------------------------------------------------|


                   G

  3  1  3    1   3  1  3 */

E|----10-------12----12-15^^----15-14-15-14-------------------------|
B|-12----12| ----14------------------------15----------------------
G|---------------------------------------------14-12-11|
D|-~~~~--|
A|------------------------------------------------------------------|
E|------------------------------------------------------------------|
E|------------------------------------------------------------------|

                                                 +
E|------------------------------------------------------------------|
B|----------------------------------------11-12-11-12-11-12-11-12---|
G|-11h12p11----11-------------------11-12---------------------------|
D|----------14----12-14-------12-14---------------------------------|
A|----------------------12-14---------------------------------------|
E|------------------------------------------------------------------|

+      +      +      +      +                    Em 
E|------------------------------------------------------3-////(7)/--|
11-12-14-12-11----11-12-11-12-11----------------------3-|||||||---
E|---------------12----------------12-11-9----9----9----0-\\\\--|
B|-----------------------------------------12---12------------------|
G|------------------------------------------------------------------|
D|------------------------------------------------------------------|




  +      +               -         -      -         +   +    +

E|--14^^-12-10-12---------------------------------------------------|
B|----------------11-12-11------------------------------------------|
G|-------------------------11-12-11--9-11-9--7-9-7---2^^-2^^-2^^2^^-|
D|------------------------------------------------------------------|
A|------------------------------------------------------------------|
E|------------------------------------------------------------------|

 +  +    +            Bm
E|--------------------7--14--14^^-14^14p12h14-12-10-12-10|
B|-12^---|
G|------------------------------------------------------------------|
D|-2^^2^^--2^2p0----------------------------------------------------|
A|---------------2~~~-----------------------------------------------|
E|------------------------------------------------------------------|
E|------------------------------------------------------------------|

E|------------------------------------------------------------------|
B|-12^12p10|
G|-12^--------------------------------------------------|
D|-----------------14-12--------------------------------------------|
A|-----------------------14-12-14p12| ^--------14-xx-16-xx-17-xx---
E|------------------------------------------------------------------|
E|------------------------------------------------------------------|

                             Em
E|--------------------------------14---17^^--17^17^---19^^-19| 9-
B|---------------------15-xx-17-xx------------------17--------------|
G|--14-xx-16-xx-17-xx-----------------------------------------------|
D|------------------------------------------------------------------|
A|------------------------------------------------------------------|
E|------------------------------------------------------------------|

            +                 Bm
E|-19~~~~~--3-/////--------------14-15-19~~~~-22~~17~~16~~----------|
B|----------3-| ||||--------15-17-------------------------17~~15~~---
G|----------0-\\-------------------------------------------------|
D|------------------------------------------------------------------|
A|------------------------------------------------------------------|
E|------------------------------------------------------------------|

                                              Em
E|-------------------------------------12--14-15xx-17xx-22xx--24----|
B|--------------------------12~~15~~--------------=-----------------|
G|-14^14-12---------12~~14~~----------------------------------------|
D|----------12~~14~~------------------------------------------------|
A|------------------------------------------------------------------|
E|------------------------------------------------------------------|


FIN

Bueno espero que les haya parecido bien tabulada esta canción, que
personalmente considero una obra maestra y a Cerati como un
excelente musico!! Y a Andrea una excelente cantante colombiana.
Viva el Rock Colombiano!!.
00:00 / 00:00
Outros vídeos desta música
Repetir
Outros vídeos desta música
721 exibições
    • ½ Tom
    • Am
    • Bbm
    • Bm
    • Cm
    • C#m
    • Dm
    • Ebm
    • Em
    • Fm
    • F#m
    • Gm
    • G#m
  • Adicionar à lista

Afinação da cifra

Afinador online

    0 comentários

    Ver todos os comentários

    Entre para o Cifra Club PRO

    Tenha acesso a benefícios exclusivos no App e no Site

    • Chega de anúncios

    • Mais recursos no app do Afinador

    • Atendimento Prioritário

    • Aumente seu limite de lista

    • Ajude a produzir mais conteúdo

    00:00 / 00:00

    Cifra Club Pro

    Aproveite o Cifra Club com benefícios exclusivos e sem anúncios
    Cifra Club Pro
    Aproveite o Cifra Club com benefícios exclusivos e sem anúncios
    OK