Cifra Club

La Ciudad de La Furia

Soda Stereo

Cifra: Principal (violão e guitarra)
Selo Cifra Club: esta cifra foi revisada para atender aos critérios oficiais da nossa Equipe de Qualidade.
tom: Bm
E|-------------------------| I----------------I
B|-3~--------3-----3---3---| I----------------I
G|-0~----0---0-----0---0---| I----------------I
D|-2~----2---2----(0)-(2)--| I----------------I
A|-2~---(0)-(2)------------| I-------5--7-7~--I
E|-------------------------| I---5s7----------I

E|------------------------------------| I------------------------I
B|-----------------------------12-----| I-----12-----------12----I
G|--s/11--------------------12----12~-| I--14-----12-14-------12-I
D|-------12-----------12-14-----------| I---------------14-------I
A|----------14--12s14-----------------| I------------------------I
E|------------------------------------| I------------------------I

E|--------------| I
B|-15b17~-15~~--| I
G|--------------| I
D|--------------| I
A|--------------| I
E|--------------| I

E|-15p12----12-----------------------------------------------| I
B|-------15----15p12----12-----------------------------------| I
G|-------------------15----15-14-12----12-14-12----12--------| I
D|----------------------------------14----------14----14-12--| I
A|-----------------------------------------------------------| I
E|-----------------------------------------------------------| I

E|----------------------------------------------------------| I
B|----------------------------------------------------------| I
G|-------------------------------------12-11----11----------| I
D|----12----------------------12-13-14-------14----14-12----| I
A|-14----14-13-12-10-12-13-14----------------------------14-| I
E|----------------------------------------------------------| I

E|--------------------------| I
B|----------------------12--| I
G|-------------11-12-14-----| I
D|-------12-14--------------| I
A|-12-14--------------------| I
E|--------------------------| I

E|-14-15-14~--12----12-------------------------| I
B|---------------15----15b17~-(17)r15p12-15~---| I
G|---------------------------------------------| I
D|---------------------------------------------| I
A|---------------------------------------------| I
E|---------------------------------------------| I

E|------------------------------------------------| I
B|------------------------------------------------| I
G|--2-4-2-0-2~--0---------------------------------| I
D|----------------2~--------0-------(0)------(0)--| I
A|----------------------0h2----(0h2)----(0h2)-----| I
E|------------------------------------------------| I

E|-----------------------------------------------------| I
B|-----------12--------------15-14~--------------------| I
G|--------12----12~----11-12---------------------------| I
D|--12s14--------------------------------12----12s14~--| I
A|-----------------------------------s14----14---------| I
E|-----------------------------------------------------| I

E|---------------------------------------------| I
B|----------------------------------15-17-15~--| I
G|-------------------12--12s14-16~-------------| I
D|--------12~--12s14---------------------------| I
A|--12s14--------------------------------------| I
E|---------------------------------------------| I

E|--------15-14-15-14-----------------| I
B|--15-17-------------15--------------| I
G|-----------------------14-12-11v~~--| I
D|------------------------------------| I
A|------------------------------------| I
E|------------------------------------| I

E|-------------------------14v-15v--| I
B|-----------------15v-17v----------| I
G|-11v-12v-14v-16v------------------| I
D|----------------------------------| I
A|----------------------------------| I
E|----------------------------------| I

E|--17b19-17~------19b21~-21r-19-18--17-17-18-19----19~--| I
B|--------------17-------------------------------17------| I
G|-------------------------------------------------------| I
D|-------------------------------------------------------| I
A|-------------------------------------------------------| I
E|-------------------------------------------------------| I

E|--------------------------------------------------------| I
B|--s17-17-------17-------17-------17-------17--------19--| I
G|--s16-16-15s16-16-15s16-16-15s16-16-15s16-16-15s16------| I
D|--------------------------------------------------------| I
A|--------------------------------------------------------| I
E|--------------------------------------------------------| I

E|-12-15-14-12---------------------------------------| I
B|-------------15-----------------------------12-15--| I
G|----------------14-12-11--------------12-14--------| I
D|-------------------------12--------14--------------| I
A|----------------------------14~-12-----------------| I
E|---------------------------------------------------| I

E|--12-15-17tr~--19tr~--24s--| I
B|---------------------------| I
G|---------------------------| I
D|---------------------------| I
A|---------------------------| I
E|---------------------------| I
00:00 / 00:00
Outros vídeos desta música
Repetir
Outros vídeos desta música
1.816 exibições
    • ½ Tom
    • Am
    • Bbm
    • Bm
    • Cm
    • C#m
    • Dm
    • Ebm
    • Em
    • Fm
    • F#m
    • Gm
    • G#m
  • Adicionar à lista

Afinação da cifra

Afinador online

    0 comentários

    Ver todos os comentários

    Entre para o Cifra Club PRO

    Tenha acesso a benefícios exclusivos no App e no Site

    • Chega de anúncios

    • Mais recursos no app do Afinador

    • Atendimento Prioritário

    • Aumente seu limite de lista

    • Ajude a produzir mais conteúdo

    00:00 / 00:00

    Cifra Club Pro

    Aproveite o Cifra Club com benefícios exclusivos e sem anúncios
    Cifra Club Pro
    Aproveite o Cifra Club com benefícios exclusivos e sem anúncios
    OK