Cifra Club

Portais Eternos

Stauros

Cifra: Principal (violão e guitarra)
tom: G
Notação: 
  _ 
 / \  = Ligadura 
/   \ 
 
(+1/2) Bend Up de 1 Semitom 
(-1/2) Bend Down de 1 Semitom 
(+1) Bend Up de 1 Tom 
(-1) Bend Down de 1 Tom 
 
Introdução som limpo 
 
 Em C D C Em 
 
Base Som Limpo  
 
(Ao olhar para...) 
 Em C D C 
 Em C D C 
 Em G9 D 
 C D Em 
 
 
Introdução com distorção: 
 
e|-----------------------| 
B|---------------/\------| 
G|---4/2/5-4-2--/--\-----| 
D|-------------4-5-4-0-2-|  
A|-----------------------|  
E|-0---------------------|  
 
e|-------------------------5-7--8--5-7-7-(+1/2)(-1/2)-7-5-7--| 
B|--------7-5-------5-7-8------------------------------------| 
G|----7-------7----------------------------------------------| 
D|------7----------------------------------------------------| 
A|-----------------------------------------------------------| 
E|-0---------------------------------------------------------| 
 
e|-----------------------| 
B|---------------/\------| 
G|---4/2/5-4-2--/--\-----|  
D|-------------4-5-4-0-2-|  
A|-----------------------|  
E|-0---------------------|  
 
e|-------------------------5-7--8--5-10-10-(+1)(-1)-8-12-10--| 
B|--------7-5-------5-7-8------------------------------------| 
G|----7-------7----------------------------------------------| 
D|------7----------------------------------------------------| 
A|-----------------------------------------------------------| 
E|-0---------------------------------------------------------| 
 
e|---------------| 
B|-----3---------| 
G|-4-5---2-------| 
D|---------5-4-2-| 
A|---------------| 
E|---------------| 
 
Outros Riffs (2a. Guitarra): 
                            /\  
e|----------------7-7------12-7------| 
B|--------8-8-------------------8----| 
G|----9-9-----9-9-----9-9---------9--| 
D|------------------------------^-^--|  
A|------------------------------|-|--| 
E|---------------------------(Sweep)-| 
Onde está escrito sweep, tocar as notas com a palheta subindo. 
Aonde não está indicado, tocar com palhetada alternada. 
 
 
-=-=-=-=-=-=-=-=-=-=-=-=-=-=-=-=-=-=-=-=-=-=-=-=-=-=-=-=-=-=-=-=- 
Base:  
(Eu, passageiro...) 
e|-----------------------------|-----------| 
B|-----------------------------|---/\------| 
G|-------------------------5-7-|--/  \-----| 
D|-2-------2-------2-------5-7-|-2-3-2-0-2-| 
A|-2-------2-------2-------3-5-|-----------| 
E|-0-3-2-2-0-3-2-2-0-3-2-2-----|-----------| 
 
(entrego ao infinito...) 
e|--------------------------| 
B|--------------------------| 
G|-------5-------7-------4--| 
D|-------5-------7-2-----4--| 
A|-3-3-3-3-5-5-5-5---5-3-2--| 
E|--------------------------| 
 
(minha mente viaja...) 
e|--------------------------| 
B|--------------------------| 
G|-------5-------7-------4--| 
D|-------5-------7-2-----4--| 
A|-2-2-2-3-3-3-3-5---5-3-2--| 
E|--------------------------| 
 
(além dos versos...) 
e|--------------------------| 
B|--------------------------| 
G|-------5-------7-------4--| 
D|-------5-------7-2-----4--| 
A|-2-2-2-3-3-3-3-5---5-3-2--| 
E|--------------------------| 
 
(...da razão- 1a. vez) 
e|---------------------| 
B|---------------------| 
G|---------------------| 
D|-------5-----------4-| 
A|-2-2-2---2-2-2-2-2---| 
E|---------------------| 
 
repete 
 
(...anseia por ti - 2a. vez) 
e|--------------------------------------------| 
B|--------------------------------------------| 
G|--------------------------------------------| 
D|-------4-----------5-----4---5---4---5-4-2--| 
A|-2-2-2---2-2-2-2-2---2-2-----5---4---5-4-2--| 
E|---------------------------0-3-0-2-0-3-2-0--| 
 
-=-=-=-=-=-=-=-=-=-=-=-=-=-=-=-=-=-=-=-=-=-=-=-=-=-=-=-=-=-=-=-=- 
 
Refrão:  
 
(As palavras do sábio...) 
e|-----------------| 
B|---------------3-| 
G|-------------5-2-| 
D|-2-2-5-5-2-2-5-0-| 
A|-2-2-5-5-2-2-3-0-| 
E|-0-0-3-3-0-0-3---| 
 
-=-=-=-=-=-=-=-=-=-=-=-=-=-=-=-=-=-=-=-=-=-=-=-=-=-=-=-=-=-=-=-=- 
 
Ponte para o solo: 
e|-----------------------|-----------------------| 
B|-----------------------|---------5-3-----------| 
G|---------2-------------|-----4-------5-4-2-----| 
D|-2-2-4-5---2-2-5-4-0-2-|-2-5---5-----------5-0-| 
A|-----------------------|-----------------------| 
E|-----------------------|-----------------------| 
 
e|--------------------------------------------------| 
B|--------------------------------------------------| 
G|-3-----3/5-3-5-3---4-2-----2~------4-5-4-2-4-5-4--| 
D|---5-4-----------------5-2---5-4-2----------------| 
A|--------------------------------------------------| 
E|--------------------------------------------------| 
 
-=-=-=-=-=-=-=-=-=-=-=-=-=-=-=-=-=-=-=-=-=-=-=-=-=-=-=-=-=-=-=-=- 
 
Base do Solo: 
e|----------------------------------------------------------------| 
B|----------------------------------------------------------------| 
G|--------/\----------/\----------/\----5-----7----------------4~~| 
D|-2-2-2-/-2-2-2-2-2-/-2-2-2-2-2-/-2----5-----7----5-4-2----------| 
A|-2-2-2---2-2-2-2-2---2-2-2-2-2---2----3-----5----------5-3-2----| 
E|-0-0-0-3-0-0-0-0-0-3-0-0-0-0-0-3-0------------------------------| 
 
e|----------------------------------------------------------------| 
B|----------------------------------------------------------------| 
G|--------/\----------/\----------/\----5-----7----------------4~~| 
D|-2-2-2-/-2-2-2-2-2-/-2-2-2-2-2-/-2----5-----7----5-4-2----------| 
A|-2-2-2---2-2-2-2-2---2-2-2-2-2---2----3-----5----------5-3-2----| 
E|-0-0-0-3-0-0-0-0-0-3-0-0-0-0-0-3-0------------------------------| 
 
e|---------_---------------_---------------_---------------_---------| 
B|--------/-\-------------/-\-------------/-\-------------/-\--------| 
G|-------/---\-----------/---\-----------/---\-----------/---\-------| 
D|-------5-7-5-----------5-7-5-----------7-9-7-----------7-9-7-------| 
A|-7-7-7-------7-7-7-7-7-------7-7-9-9-9-------9-9-9-9-9-------9-9-10| 
E|-------------------------------------------------------------------| 
 
e|--------/\---| 
B|-------/--\--| 
G|------/----\-| 
D|------9-10-9-| 
A|10-10--------| 
E|-------------| 
 
 
e|----------------------------------------------------| 
B|----------------------------------------------------| 
G|-----------------------------7----------------------| 
D|----------------9-10-9---------10-9-7---------------| 
A|-10-10-10-10-10--------10-10----------10-9-7--------| 
E|---------------------------------------------10-8-7-| 
 
 
Volta ao refrão....
00:00 / 00:00
Outros vídeos desta música
Repetir
Outros vídeos desta música
Composição de Vê Domingos
4.636 exibições
    • ½ Tom
    • A
    • Bb
    • B
    • C
    • Db
    • D
    • Eb
    • E
    • F
    • F#
    • G
    • Ab
  • Adicionar à lista

    0 comentários

    Ver todos os comentários

    Entre para oCifra Club PRO

    Tenha acesso a benefícios exclusivos no App e no Site

    • Chega de anúncios

    • Prioridade de compra em lançamentos

    • Mais recursos no app do Afinador

    • Atendimento Prioritário

    • Descontos nos produtos Cifra Club

    • Ajude a produzir mais conteúdo

    00:00 / 00:00

    Cifra Club Pro

    Aproveite o Cifra Club com benefícios exclusivos e sem anúncios
    Cifra Club Pro
    Aproveite o Cifra Club com benefícios exclusivos e sem anúncios
    OK