Cifra Club

Dance of The Seeds

Stauros

Cifra: Principal (violão e guitarra)
tom: G
Música: Vê Domingos N
Letra: Vê Domingos N.

TAB P/ GUITARRA
TON:Em /
/ \ = ligadura
   __
  /  \
 /    \  = ligadura
/      \
5/ 7 = slide
~ = alavanca
/ =
\ =

Intro...


E-||-----------------------|--------------------------|----------------------|
B-||.----------------------|--------------------------|----------------------|
G-||-----------------------|--------------------------|----------------------|
D-||--5--2--5--8--7--8--7--|--5--2--5--2--------3--2--|-2--2--5--8--7--8--7--|
A-||.-5--2--5--8--7--8--7--|--5--2--5--2--------3--2--|-5--2--5--8--7--8--7--|
E-||--3--0--2--6--5--6--5--|--3--0--3--0--0-0-0-1--0--|-5--0--3--6--5--6--5--|

   ____________  ____________
        1ª vez | |  2ª vez
E--------------||-------------------|----------------------|-------------------
B-------------.||-------------------|----------------------|-------------------
G--------------||-------------------|----------------------|-------------------
D-5--2--5--2---||-5--2--5--2--2--2--|-5--2--5--8--7--8--7--|-5--2--5--2--------
A-5--2--5--2--.||-5--2--5--2--2--2--|-5--2--5--8--7--8--7--|-5--2--5--2--------
E-3--0--3--0---||-3--0--3--0--0--0--|-3--0--2--6--5--6--5--|-3--0--3--0--0-0-0-

E--------|------------------------|---------------------|-----------------|----
B--------|------------------------|---------------------|-----------------|----
G--------|------------------------|---------------------|-----------------|----
D-3--2---|--5--2--5--8--7--8--7---|--5--2--5--2--2--2---|--2--2--2--2-----|----
A-3--2---|--5--2--5--8--7--8--7---|--5--2--5--2--2--2---|--2--2--2--2-----|----
E-1--0---|--3--0--3--0--5--6--5---|--3--0--3--0--0--0---|--0--0--0--0-----|----

1ª estrofe
E--/--------------/-------------||---/-------------||--------------------------
B-/-\------------/-\------------||.-/-\-----------.||--------------------------
G-3/ 4-----------3/ 4-----------||--3/ 5-----------||--------------------------
D-3/ 4--2-2-2-2--3/ 4--2-2-2-2--||--3/ 5--2-2-2-2--||----2X--------------------
A-1/ 2--2-2-2-2--1/ 2--2-2-2-2--||.-1/ 2--2-2-2-2-.||--------------------------
E-1/ 2--0-0-0-0--1/ 2--0-0-0-0--||--1/ 2--0-0-0-0--||--------------------------

E-------------------------------------|--/--------------/--------------/-------
B-------------------------------------|-/-\------------/-\------------/-\------
G---------------B1/2------------------|-3/ 4-----------3/ 4-----------3/ 4-----
D---/------------------------2-2-2-2--|-3/ 4--2-2-2-2--3/ 4--2-2-2-2--3/ 4-----
A--/-\----------/--\---------2-2-2-2--|-1/ 2--2-2-2-2--1/ 2--2-2-2-2--1/ 2-----
E-5/ 6--5--3--5------(5)--3--0-0-0-0--|-1/ 2--0-0-0-0--1/ 2--0-0-0-0--1/ 2-----

E---------------------------------------------------------------------------|-
B---------------------------------------------------------------------------|-
G----------3/ 4------------------------B1/2---------------------------------|-
D-2-2-2-2--3/ 4--2-2-2-2---/-----------------------2-2-2-2--2-2-2-2---------|-
A-2-2-2-2--1/ 2--2-2-2-2--/-\----------/--\--------2-2-2-2--2-2-2-2---------|-
E-0-0-0-0--1/ 2--0-0-0-0--5/ 6--5-3--5-----(5)--3--0-0-0-0--0-0-0-0---------|-

E--/--------------------/-----/---------------------------------------------|-
B-/-\----------4-------/-\---/-\----------4---------------------------------|-
G-3/ 4---------4-------3/ 4--3/ 4---------4-----------3/ 4---------4--------|-
D-3/ 4---------2-------3/ 4--3/ 4---------2--2-2-2-2--3/ 4---------4--------|-
A-1/ 2---------2-------1/ 2--1/ 2---------2--2-2-2-2--1/ 2---------2--------|-
E-1/ 2--0-0-0-----0-0--1/ 2--1/ 2--0-0-0-----0-0-0-0--1/ 2--0-0-0-----0-0---|-

E--/-----/------------------------------------------------------------------|-
B-/-\---/-\----------4------------------------------------------------------|-
G-3/ 4--3/ 4---------4------------------------------------------------------|-
D-3/ 4--3/ 4---------2--2-2-2-2--2-2-2-2--2-2-2-2---------------------------|-
A-1/ 2--1/ 2---------2--2-2-2-2--2-2-2-2--2-2-2-2---------------------------|-
E-1/ 2--1/ 2--0-0-0-----0-0-0-0--0-0-0-0--0-0-0-0---------------------------|-


 1º refrão
E-||----------------------|-------------------------|-----------------------|-
B-||.---------------------|-------------------------|-----------------------|-
G-||----------------------|-------------------------|-----------------------|-
D-||--5--2--5--8--7--8--7-|-5--2--5--2---------3--2-|-5--2--5--8--7--8--7---|-
A-||.-5--2--5--8--7--8--7-|-5--2--5--2---------3--2-|-5--2--5--8--7--8--7---|-
E-||--3--0--3--6--5--6--5-|-3--0--2--0--0-0-0--1--0-|-3--0--2--6--5--6--5---|-

          __________  _____________
            1ª vez  | | 2ª vez
E-------------------||-----------------|-----------|--------------------------
B------------------.||-----------------|-----------|--------------------------
G-------------------||-----------------|-----------|--------------------------
D-5--2--5--2--2--2--||-5--2--5--2-2-2--|-2-2-2-2---|--2ª = 1ª estrofe---------
A-5--2--5--2--2--2-.||-5--2--5--2-2-2--|-2-2-2-2---|--------------------------
E-3--0--3--0--0--0--||-3--0--3--0-0-0--|-0-0-0-0---|--------------------------


  2º refrão
E-||----------------------|--------------------------|------------------------|
B-||.---------------------|--------------------------|------------------------|
G-||----------------------|--------------------------|------------------------|
D-||--5--2--5--8--7--8--7-|--5--2--5--2---------3--2-|--5--2--5--8--7--8--7---|
A-||.-5--2--5--8--7--8--7-|--5--2--5--2---------3--2-|--5--2--5--8--7--8--7---|
E-||--3--0--3--6--5--6--5-|--3--0--3--0--0-0-0--1--0-|--3--0--3--6--5--6--5---|

        ___________  ___________
            1ª vez | |  2ª vez               $
E------------------||---------------------|------------------------------------
B-----------------.||---------------------|------------------------------------
G------------------||---------------------|-----/--------------------------7--7
D-5--2--5--2-2-2---||--5--2---5--2-2-2-2--|----/-\-------------------------6--6
A-5--2--5--0-0-0--.||--5---2--3--0-0-0-0--|--5/7--5----5-------------------7--7
E-3--0--3--0-0-0---||--3---0--2--0-0-0-0--|----------7---7--6--3--6--5--3------

E----------------------------------------|-------------------------------------|
B----------------------------------------|-------------------------------------|
G----/-----------------------------------|----/---------------------------7--7-|
D---/-\---------------------------2-2-2--|---/-\--------------------------6--6-|
A-5/7--5-----5--------------------2-2-2--|-5/7--5----5--------------------7--7-|
E---------7-----7--6--3--6--5--3--0-0-0--|---------7---7--6--3--6--5--3--------|

                                                             $
E------------------------------------------------------------|------------------
B------------------------------------------------------------|------------------
G------------------------------------------------------------|------------------
D----/---------------------------8--------7--------5---------|------------------
A---/-\-----5--------------------8--------7--------5---------|------------------
E-5/7--5--7----7--6--3--6--5--3--6--0--0--5--0--0--3---------|------------------

  Base Solo   B1/4 
E------------------------------------------------------------||-----------------
B----------------------------------------------/------------.||-----------------
G--------/------------------------------------/-\------------||-----------------
D-------/-\----------------3-2---------5-----7/ 8------------||-----------------
A-------3--2---/-----------3-2---------5-----7/ 8-----------.||-----------------
E-0--0-------3----0-0-0-0--1-0--0-0-0--2--0--5/ 0------------||-----------------

E--------------------------------------------------------------|----------------
B--------------------------------------------------------------|----------------
G-------/------------------------------------------------------|----------------
D------/-\----------------3-2---------5----------+ $-----------|----------------
A------3--2---/-----------3-2---------5------------------------|----------------
E-0-0-------3----0-0-0-0--1-0--0-0-0--2--0---------------------|----------------

                                5X
E----------------------------||--------------------------------------------------
B---------------------------.||--------------------------------------------------
G----------------------------||--------------------------------------------------
D-3--3--2--------------2--5--||-3-3-2--------------------------------------------
A-3--3--2--8--5--7--8--2--5-.||-3-3-2--5-6-7-8--5-6-7-8--5-6-7-8--5-6-7-8--------
E-1--1--0--8--5--7--8--0--3--||-1-1-0--5-6-7-8--5-6-7-8--5-6-7-8--5-6-7-8--------

E-----------------||------------------------||-----------------------------------
B-----------------||.----------------------.||-----------------------------------
G-----------------||------------------------||-----------------------------------
D--2X--refrão---||--3-3-2-----------2--5--||--3X-------------------------------
A-----------------||.-3-3-2--8-5-7-8--2--5-.||-----------------------------------
E-----------------||--1-1-0--8-5-7-8--0--3--||-----------------------------------

E-----------------------------------------------------||-------------------------
B-----------------------------------------------------||-------------------------
G-----------------------------------------------------||-------------------------
D-3-3-2-----------2--5--3---------3--2----------------||-------------------------
A-3-3-2--8-5-7-8--2--5--3---------3--2----------------||-------------------------
E-1-1-0--8-5-7-8--0--3--1--1-1-1--1--0----------------||-------------------------
00:00 / 00:00
Outros vídeos desta música
Repetir
Outros vídeos desta música
Compositor não encontrado.
3.089 exibições
    • ½ Tom
    • A
    • Bb
    • B
    • C
    • Db
    • D
    • Eb
    • E
    • F
    • F#
    • G
    • Ab
  • Adicionar à lista

    0 comentários

    Ver todos os comentários

    Entre para oCifra Club PRO

    Tenha acesso a benefícios exclusivos no App e no Site

    • Chega de anúncios

    • Prioridade de compra em lançamentos

    • Mais recursos no app do Afinador

    • Atendimento Prioritário

    • Descontos nos produtos Cifra Club

    • Ajude a produzir mais conteúdo

    00:00 / 00:00

    Cifra Club Pro

    Aproveite o Cifra Club com benefícios exclusivos e sem anúncios
    Cifra Club Pro
    Aproveite o Cifra Club com benefícios exclusivos e sem anúncios
    OK