Cifra Club

Inside Of The Eyes

Stauros

Cifra: Principal (violão e guitarra)
tom: G
/ Bm 
 
 
------------------------------------------------------------||--- 
-----------------------------------------------------0-----.||--- 
---------------------------0------------0----------0--------||--- 
------4---0---0------4---4---4---4----4---4--/\--4----------||--- 
----2---2---2------2---2-------2----3--------4/5-----------.||--- 
--0--------------3------------------------------------------||--- 
 
 
----------------------------------------------------------------- 
--------0-------0--------0-------0---------0-------0--------0---- 
------4---4---4--------4---4---4---------4---4---4--------4---3-- 
----4-------4--------4-------4---------4-------4--------4-------4 
--2----------------0--------------------------------------------- 
------------------------------------3-----------------2---------- 
 
 
--------|-------------0-----------------2------------------3----- 
--------|--------0------0----------0------0-----------0------0--- 
--------|------4---4------4------4---4------4-------4---4------4- 
-----4--|----4-----------------4------------------4-------------- 
--------|--2-----------------0----------------------------------- 
--2-----|--------------------------------------3----------------- 
 
                Chorus I 
--------------||------------------------------------------------- 
---------0----||.------------------------------------------------ 
-------4---3--||-----------------------------0-----------0------- 
-----4--------||-------4---0---0------4----4---4---4---4---4----- 
--------------||.----2---2---2------2----2-------2---3----------- 
--2-----------||---0--------------3------------------------------ 
 
 
---------------||------------------------------------------------ 
-----------0--.||------------0-------0--------0-------0---------- 
---------0-----||----------4---4---4--------4---4---4---------4-- 
--/\---4-------||4X------4-------4--------4-------4---------4---- 
--4/5---------.||------2----------------0------------------------ 
---------------||----------------------------------------3------- 
 
 
---------------------------------|-------------0----------------- 
--0-------0---------0------------|--------0------0-----------0--- 
----4---4---------4---3----------|------4---4------4-------4---4- 
------4---------4-------4-----4--|----4------------------4------- 
---------------------------------|--2-----------------0---------- 
-------------2-------------2-----|------------------------------- 
 
 
--2------------------3-----------------------------------------|| 
----0-----------0------0-----------0----Chorus II igual--------|| 
------4-------4---4------4-------4---3----------Chorus I-------|| 
------------4------------------4-----------{entra distorção----|| 
---------------------------------------------------------aqui--|| 
---------3------------------2----------------------------------|| 
 
 (Distorção)                              (2ª parte) 
-----------------------------------------|----------------------- 
--------------------0--------------------|----------------------- 
------0-----------0----------------------|-4-----4-4-4--4-----4-- 
----4---4---/\--4------4-4-4-4--4-4-4-4--|-4-----4-4-4--4-----4-- 
--3--------4/5---------5-5-5-5--5-5-5-5--|-2-2-2-2-2-2--0-0-0-0-- 
-----------------------------------------|----------------------- 
 
                                   {*} 
---------------------------------||-----------0-0-0-------------- 
---------------------------------||.----------0-0-0-------------- 
--4-4--4-----4-4-4--4-----3-3-3--||---4-----4--------4-----4----- 
--4-4--4-----4-4-4--4-----4-4-4--||---4-----4--------4-----4----- 
--0-0----------------------------||.--2-2-2-2--------0-0-0-0----- 
-------3-3-3-3-3-3--2-2-2-2-2-2--||------------------------------ 
 
 
--2-0-0-----------3-0-0----------------||-----||----------------- 
--0-0-0-----------0-0-0---------------.||-----||.---------------- 
---------4-----4---------4-----3-3-3---||-----||---4------------- 
---------4-----4---------4-----4-4-4---||5X---||---4------4-5--4- 
--------------------------------------.||-----||.--2-x-x--4-5--4- 
---------3-3-3-3---------2-2-2-2-2-2---||-----||----------2-3--2- 
 
                Chorus III (distorção) 
-------||----||-------------------------------------------------- 
---3--.||----||.------------------------------------------------- 
---0---||----||--------------------------0-----------0----------- 
-2-0---||4X--||------4---0---0-----4---4---4---4---4---4---/\--4- 
-2----.||----||.---2---2---2-----2---2-------2---3--------4/5---- 
-0-3---||----||--0-------------3--------------------------------- 
             P.M 
 
------||----------------------|---------------------------------- 
--0--.||----------------------|--Repete a------------------------ 
-0----||----------------------|-------2ª parte------------------- 
------||4X--4-4-4-4--4-4-4-4--|---------------------------------- 
-----.||----5-5-5-5--5-5-5-5--|---------------------------------- 
------||----------------------|---------------------------------- 
 
Base Solo 
---------------------------------------------------------||------ 
-------------------------/\-----------------------------.||------ 
-3-----3-----3----------3/4--3-----3-----3---------------||------ 
-4-----4-----4-P-----2--4/5--4-----4-----4-P-----2-------||2X---- 
-4-----4-----4/\-2-2-2--4/5--4-----4-----4/\-2-2-2------.||------ 
-2-2-2-2-2-2-2-0-0-0-0--2/3--2-2-2-2-2-2-2-0-0-0-0-------||------ 
 
 
----2----------------2----------------|-------------------------- 
------2--------3-------2--------3-----|-------------------------- 
-4------4------0--4------4------0--2--|-Repete 2ª parte---------- 
-4---------4-2-0--4--------4--2-0--2--|--------{*} 2X------------ 
-2---------4-2----2--------4--2----0--|-------------------------- 
-----------2-0-3-----------2--0-3-----|-------------------------- 
 
 
||--------------------------------------------------------------- 
||.-------------------------------------------------------------- 
||---4-----4-----4-----4-4-----4-----4-----4-----4--4-----4------ 
||---4-----4-----4-----4-4-----4-----4-----4-----4--4-----4------ 
||.--2-2-2-2-2-2-2-2-2-2-0-0-0-0-0-0-0-0-0-0-0-0-0--------------- 
||--------------------------------------------------3-3-3-3-3-3-- 
 
 
----------------------------------||----||--------------------|| 
---------------------------------.||----||.---------------3-3.|| 
-4-----4--4-----4-3-----3-----3---||----||--4-------------0-0-|| 
-4-----4--4-----4-4-----4-----4---||2X--||--4-----4-5-4-2-0-0-||3X 
---------------------------------.||----||.-2-x-x-4-5-4-2----.|| 
-3-3-3-3--2-2-2-2-2-2-2-2-2-2-2---||----||--------2-3-2-0-3-3-|| 
 
 
------------------||--------------------------------------------- 
------------------||--------------------------------------------- 
--4---------------||--------------------------------------------- 
--4-----4-5-4-2---||--------------------------------------------- 
--2-x-x-4-5-4-2---||--------------------------------------------- 
--------2-3-2-0---||---------------------------------------------
00:00 / 00:00
Outros vídeos desta música
Repetir
Outros vídeos desta música
Compositor não encontrado.
2.175 exibições
    • ½ Tom
    • A
    • Bb
    • B
    • C
    • Db
    • D
    • Eb
    • E
    • F
    • F#
    • G
    • Ab
  • Adicionar à lista

    0 comentários

    Ver todos os comentários

    Entre para oCifra Club PRO

    Tenha acesso a benefícios exclusivos no App e no Site

    • Chega de anúncios

    • Prioridade de compra em lançamentos

    • Mais recursos no app do Afinador

    • Atendimento Prioritário

    • Descontos nos produtos Cifra Club

    • Ajude a produzir mais conteúdo

    00:00 / 00:00

    Cifra Club Pro

    Aproveite o Cifra Club com benefícios exclusivos e sem anúncios
    Cifra Club Pro
    Aproveite o Cifra Club com benefícios exclusivos e sem anúncios
    OK