Cifra Club

Shape Of My Heart

Sting

Cifra: Principal (violão e guitarra)
tom: F#m
[Intro] F#m  E6  D6  C#7(4)  C#7
        F#m6-  E6  D6  C#7(4)  C#7
        D6  A  C#7  D  G#m7(11)  F#m

[Tab - Dedilhado]

Parte 1 de 3
   F#m           E6       D6        C#7(4) C#7
E|----------------------------------------------------|
B|-10------10---9-----9---7-----7---7------6----------|
G|------------------6---------4-----4------4----------|
D|------11--------6---------4-----------6-------------|
A|-9--9---------7---------5---------4-----------------|
E|----------------------------------------------------|

Parte 2 de 3
   F#m6-        E6        D6        C#7(4)  C#7       
E|----------------------------------------------------|
B|-10------10---9-----9---7-----7---7-------6---------|
G|------------------6---------4-----4-------4---------|
D|------12--------6---------4------------6------------|
A|-9--9---------7---------5---------4-----------------|
E|----------------------------------------------------|

Parte 3 de 3
   D6              A    C#7      D      G#m7(11) F#m
E|---------5---------------------2-0-------------2----|
B|-----7-----7---------------6---3---3---2-------2----|
G|---4---4-----4---4-2-------4---2-------4-------2----|
D|-----------------2-------6-----0-------4-------4----|
A|-5---------------0-----4-----------------------4----|
E|---------------------------------------4-------2----|
                                                 ↓
[Primeira Parte]

F#m               E6    
    He deals the cards 
      D6        C#7(4)  C#7           
As a meditation
F#m6-                E6      
      And those he plays 
          D6  C#7(11)  C#7    
Never suspect
D6                                
   He doesn't play 
         A        C#7
For the money he wins
D              G#m7(11)  F#m  
  He doesn't play for   respect

F#m               E6    
    He deals the cards 
             D6     C#7(4)  C#7         
 To find the answer
F#m6-             E6            
      The sacred geometry 
      D6  C#7(4)  C#7 
Of chance
D6                       A      C#7
   The hidden law of a probable outcome
D              G#m7(11)    F#m     
  The numbers lead a dance

[Refrão]

F#m                   E6
    I know that the spades 
      D6         C#7(4)  C#7  
Are swords of a soldier
F#m6-                   E6   
      I know that the clubs 
                D6  C#7(4)  C#7
Are weapons of war
D6   
   I know that diamonds 
      A             C#7
Mean money for this art
      D              G#m7(11)   F#m
But that's not the shape of my heart

[Segunda Parte]

F#m          E6    
    He may play 
             D6      C#7(4)  C#7
The jack of diamonds
F#m6-         E6          
      He may lay the queen 
     D6   C#7(4)  C#7
Of spades
D6                   A           C#7
   He may conceal a king in his hand
D              G#m7(11)        F#m
  While the memory of it fades

[Refrão]

[Tab - Dedilhado]

Parte 1 de 4
   F#m           E6       D6        C#7(4) C#7
E|----------------------------------------------------|
B|-10------10---9-----9---7-----7---7------6----------|
G|------------------6---------4-----4------4----------|
D|------11--------6---------4-----------6-------------|
A|-9--9---------7---------5---------4-----------------|
E|----------------------------------------------------|

Parte 2 de 4
   F#m6-        E6        D6        C#7(4)  C#7       
E|----------------------------------------------------|
B|-10------10---9-----9---7-----7---7-------6---------|
G|------------------6---------4-----4-------4---------|
D|------12--------6---------4------------6------------|
A|-9--9---------7---------5---------4-----------------|
E|----------------------------------------------------|

Parte 3 de 4
   D6              A    C#7      D      G#m7(11)
E|---------5---------------------2-0------------------|
B|-----7-----6---------------6---3---3---2---2--------|
G|---4---4-----4---4-2-------4---2-------4---4--------|
D|-----------------2-------6-----0-------4-4---4------|
A|-5---------------0-----4----------------------------|
E|---------------------------------------4------------|

 Parte 4 de 4
   F#m     F#m7      D       G#m7(11)
E|-------------------2--0-----------------------------|
B|-2---2----2---2----3----3--2---2---2---2---2--------|
G|-2---2----2---2----2-2-----4---4---4---4---4--------|
D|-4-4---4--2-2---2--0-------4-4---4---4---4-4--------|
A|----------------------------------------------------|
E|-2--------2----------------4---------------4--------|

F#m                   E6
    I know that the spades 
      D6         C#7(4)  C#7  
Are swords of a soldier
F#m6-                   E6   
      I know that the clubs 
                D6  C#7(4)  C#7
Are weapons of war
D6   
   I know that diamonds 
      A             C#7
Mean money for this art
      D              
But that's not the 
  G#m7(11)   F#m  F#m7
Shape of my heart
      D              G#m7(11)
But that's not the shape

Shape of my heart

[Ponte] C#m  B6  A6  G#7(4)  G#7
        C#m6-  B6  A6  G#7(4)  G#7
        A6  E  G#7  A  D#m7
        C#m  C#m7  A  G#7  A

[Tab - Dedilhado]

Parte 1 de 4
   C#m      B6       A6       G#7(4)  G#7
E|----------------------------------------------------|
B|----------------------------------------------------|
G|-9-----9--8-----8--6-----6--6-------5---------------|
D|-----6--------6--------4----4-------4---------------|
A|--------------------------------4-------------------|
E|-9-9------7-7------5-5------4-----------------------|

Parte 2 de 4
   C#m6-    B6       A6       G#7(4)  G#7
E|----------------------------------------------------|
B|----------------------------------------------------|
G|-9-----9--8-----8--6-----6--6-------5---------------|
D|-----7--------6--------4----4-------4---------------|
A|--------------------------------4-------------------|
E|-9-9------7-7------5-5------4-----------------------|

Parte 3 de 4
   A6             E   G#7       A      D#m7
E|----------------------------------------------------|
B|---------5---------------4----2-0----4---4----------|
G|-----6-----6-------------5----2---2--6---6----------|
D|---4---4-----4--4-2----4---4--2------4-4---4--------|
A|----------------2-------------0------6--------------|
E|-5--------------0----4------------------------------|
  
Parte 4 de 4
   C#m     C#m7      A       G#7   A
E|---------------------------4-----5------------------|
B|-5---5----5---5----2--0----4-----5------------------|
G|-6---6----4---4----2----2--5-----6------------------|
D|-6-6---6--6-6---6--2-2-----4-----7------------------|
A|-4--------4--------0-------6-----7------------------|
E|---------------------------4-----5------------------|
                             ↓     ↓

[Terceira Parte]

F#m           E6    
    And if I told you 
        D6       C#7(4)  C#7
That I loved you
F#m6-               E6
      You'd maybe think 
                    D6  C#7(4)  C#7
There's something wrong
D6                   A          C#7 
   I'm not a man of too many faces
D      G#m7(11)          F#m 
  The mask I wear is one

F#m       E6                  
    But those who speak 
      D6     C#7(4)  C#7    
Know nothing
F#m6-      E6              
      And find out 
          D6  C#7(4)  C#7
To their cost
D6                                    
   Like those who curse their luck 
    A         C#7
In too many places
D                G#m7(11)     F#m   
  And those who fear are lost

[Refrão]

F#m                   E6
    I know that the spades 
      D6         C#7(4)  C#7  
Are swords of a soldier
F#m6-                   E6   
      I know that the clubs 
                D6  C#7(4)  C#7
Are weapons of war
D6   
   I know that diamonds 
      A             C#7
Mean money for this art
      D              
But that's not the 
  G#m7(11)   F#m  F#m7
Shape of my heart
      D              
But that's not the 
  G#m7(11)   F#m  F#m7
Shape of my heart
      D              G#m7(11)
But that's not the shape

Shape of my heart

[Final] F#m  E6  D6  C#7(4)  C#7
        F#m6-  E6  D6  C#7(4)  C#7  F#m
00:00 / 00:00
Outros vídeos desta música
Repetir
Outros vídeos desta música
Composição de Dominic Miller / Sting
Colaboração e revisão:
  • Gustavo Vaz
  • Thiago Almeida
  • Adriano Republicano
154.003 exibições
    • ½ Tom
    • Am
    • Bbm
    • Bm
    • Cm
    • C#m
    • Dm
    • Ebm
    • Em
    • Fm
    • F#m
    • Gm
    • G#m
  • Adicionar à lista

    0 comentários

    Ver todos os comentários

    Entre para oCifra Club PRO

    Tenha acesso a benefícios exclusivos no App e no Site

    • Chega de anúncios

    • Prioridade de compra em lançamentos

    • Mais recursos no app do Afinador

    • Atendimento Prioritário

    • Descontos nos produtos Cifra Club

    • Ajude a produzir mais conteúdo

    00:00 / 00:00
    Capítulos
    • Apresentação
    • Tocando a Música
    • Acordes Introdução e Primeira Parte
    • Tocando Introdução
    • Ensinando Introdução
    • Acorde Segundo Refrão
    • Tocando Segundo Refrão
    • Ensinando Segundo Refrão
    • Acordes Ponte
    • Tocando Ponte
    • Ensinando Ponte
    • Encerramento

    Cifra Club Pro

    Aproveite o Cifra Club com benefícios exclusivos e sem anúncios
    Cifra Club Pro
    Aproveite o Cifra Club com benefícios exclusivos e sem anúncios
    OK