Cifra Club

Deville Solo

Strung Out

Cifra: Principal (violão e guitarra)
tom: C
By: Kevin Mawn (*)
Date: May 24th 2006

when it comes to solos, and so I am trying to remediate to this unfortunate situation. I 
myself a Tascam CD-GT1MkII, which I strongly recommend, and was finally able to nail
those fast parts that tormented me for a couple years. This tab is by no means 100% 
(some things are still hard to hear in the mix) but this should at least get you started. 
- Kevin

#INTRO#
                   ~                               ~
e-|------------------%---------|-----------------|---------|---------|
B-|--5===8-----------%---------|-------------8b10|r8-------|---5-8-5-|
G-|--7b9=====9r7---5-%-------5-|-7p5-----5-------|---------|---------|
D-|------------------%---------|-----7-----------|---------|---------|
A-|------------------%---------|-----------------|---------|---------|
E-|------------------%---------|-----------------|---------|---------|
4/4: 1 & 2 & 3 & 4 & % 1 2 3 4 | 1 & 2 & 3 & 4 & | 1 2 3 4 | 1 2 3 4 |
**********************************************************************
Fgr: 1   4         1         1   3 1 3   1   3                 1 4 1
     3
**********************************************************************

                                     ~
e-|------------------|-----------|---------|-------------|-----------------|
B-|*|-----------|---------|-------------|-----------------|
G-|-(5)--------5/7)--|---5-------|---------|-------------|-----------------|
D-|------------------|-------5/7)|---5-----|*|
A-|------------------|-----------|---------|-----3-------|---3-----5/.../7)|
E-|------------------|-----------|---------|-------------|-----------------|
4/4: 1 & 2 & 3 & 4 & | 1 2 3 & 4 | 1 2 3 4 | 1 2 3 & 4 & | 1 & 2 & 3 & 4 & |
****************************************************************************
Fgr: 2   1     3         1   3       1           2     1     1     3
     1
****************************************************************************

e-|------------------|-----------------|---------------12|---13p..p12------|
B-|------------------|---------------8/.../10)---13------|---------------13|
G-|----------------5-|---7/.../9)------|-----------------|-----------------|
D-|----5-----7-------|-----------------|-----------------|-----------------|
A-|------------------|-----------------|-----------------|-----------------|
E-|------------------|-----------------|-----------------|-----------------|
4/4: 1 & 2 & 3 & 4 & | 1 & 2 & 3 & 4 & | 1 & 2 & 3 & 4 & | 1 & 2 & 3 & 4 & |
****************************************************************************
Fgr:   1     3     1     3           1           4     3     4     3     4
****************************************************************************
                   ~~                                 ~~
e-|----12----13---/15)-------------12--|*|
B-|------------------|-----------------|---------15---13---|
G-|------------------|-----------------|-------------------|
D-|------------------|-----------------|-------------------|
A-|------------------|-----------------|-------------------|
E-|------------------|-----------------|-------------------|
4/4: 1 & 2 & 3 & 4 & | 1 & 2 & 3 & 4 & | 1 & 2 & 3 & 4 & |
**********************************************************
Fgr:   3     4                     1     2   1   4     2
**********************************************************

LEGEND:

h: Hammer-On
p: Pull-Off
=: Hold Note
~: Vibrato
/: Slide Up
: Slide Down
x: Palm Mute
b: Bend
r: Release
|: Bar
%: Section Ending
(): Ghost Note
/7): Legato Slide (Don't pick the last note).
4/4: Time-Signature

*************
Fgr: 1,2,3,4. Tells you which finger to use, counting from the Index (1).
*************

Note: The symbol "." is used in this tab to link a slur to accomodate timing at the 
A hammer-on that starts on beat 1 and ends on beat 3 will be displayed as:

e-|------------------|
B-|------------------|
G-|------------------|
D-|--7h.....h9-------|
A-|------------------|
E-|------------------|
4/4: 1 & 2 & 3 & 4 & |
00:00 / 00:00
Outros vídeos desta música
Repetir
Outros vídeos desta música
Compositor não encontrado.
174 exibições
    • ½ Tom
    • A
    • Bb
    • B
    • C
    • Db
    • D
    • Eb
    • E
    • F
    • F#
    • G
    • Ab
  • Adicionar à lista

    0 comentários

    Ver todos os comentários

    Entre para oCifra Club PRO

    Tenha acesso a benefícios exclusivos no App e no Site

    • Chega de anúncios

    • Prioridade de compra em lançamentos

    • Mais recursos no app do Afinador

    • Atendimento Prioritário

    • Descontos nos produtos Cifra Club

    • Ajude a produzir mais conteúdo

    00:00 / 00:00

    Cifra Club Pro

    Aproveite o Cifra Club com benefícios exclusivos e sem anúncios
    Cifra Club Pro
    Aproveite o Cifra Club com benefícios exclusivos e sem anúncios
    OK