Cifra Club

Aprenda

Dust In The Wind

Sungha Jung

Cifra: Principal (violão e guitarra)
tom: C
      C             C7M            C9
E|---------------------------------------------------|
B|-1-------1------0-------0-----3-------3------------|
G|-----0-------0------0-------0-----0-------0--------|
D|---2-------2------2-------2-----2-------2----------|
A|-3-----3--------3-----3-------3-----3--------------|
E|---------------------------------------------------|

      C              A5(9)          A4
E|---------------------------------------------------|
B|-1-------1------0-------0------3-------3-----------|
G|-----0-------0------2-------2------2-------2-------|
D|---2-------2------2-------2------2-------2---------|
A|-3-----3--------0-----0--------0-----0-------------|
E|---------------------------------------------------|

      Am             A5(9)
E|---------------------------------------------------|
B|-1-------1------0-------0--------------------------|
G|-----2-------2------2-------2----------------------|
D|---2-------2------2-------2------------------------|
A|-0-----0--------0-----0----------------------------|
E|---------------------------------------------------|

      C9             C              C7M
E|---------------------------------------------------|
B|-3-------3------1-------1------0-------0-----------|
G|-----0-------0------0-------0------0-------0-------|
D|---2-------2------2-------2------2-------2---------|
A|-3-----3--------3-----3--------3-----3-------------|
E|---------------------------------------------------|

      C9           Am              A5(9)
E|---------------------------------------------------|
B|-3-------3------1-------1------0-------0-----------|
G|-----0-------0------2-------2------2-------2-------|
D|---2-------2------2-------2------2-------2---------|
A|-3-----3--------0-----0--------0-----0-------------|
E|---------------------------------------------------|

       A4            Am       G
E|---------------------------------------------------|
B|--3-------3-----1--------0-------------------------|
G|------2-------2-----2----0-------------------------|
D|----2-------2-----2--------------------------------|
A|--0-----0-------0-----0--2-------------------------|
E|---------------------------------------------------|

      C             G/B            Am
E|------------------------------0--------------------|
B|-1-------1-----3-------3--------------1------------|
G|-----0-------0-----0-------0------2--------2-------|
D|---2-------2-----0-------0------2--------2---------|
A|-3-----3-------2-----2--------0-----0--------------|
E|---------------------------------------------------|

      Am             G                    Dm7
E|----------------3-----3----3-----3---1----0--------|
B|-1-------1---------------------3-------------3-----|
G|-----2-------0-----0---------0---------2-----2-----|
D|---2-------2---------------------0--------0--------|
A|-0-----0-------------------------------------------|
E|----------------3--------3-------------------------|

      Am                      G/B
E|-----0---------------------------------------------|
B|-3-------1------1-----1--3-------------------------|
G|-------------2------2----0-------------------------|
D|---2---2---2------2--------------------------------|
A|-0--------------0-----0--2-------------------------|
E|---------------------------------------------------|

      C             G/B            Am
E|------------------------------0--------------------|
B|-1-------1-----3-------3--------------1------------|
G|-----0-------0-----0-------0------2--------2-------|
D|---2-------2-----0-------0------2--------2---------|
A|-3-----3-------2-----2--------0-----0--------------|
E|---------------------------------------------------|

      Am             G                    Dm7
E|----------------3-----3----3-----3---1----0--------|
B|-1-------1---------------------3-------------3-----|
G|-----2-------0-----0---------0---------2-----2-----|
D|---2-------2---------------------0--------0--------|
A|-0-----0-------------------------------------------|
E|----------------3--------3-------------------------|

      Am4  Am
E|-----0---------------------------------------------|
B|-3-------1------1------1---------------------------|
G|-------------2------2------0-----------------------|
D|---2---2---2------2------2-------------------------|
A|-0--------------0-----0----------------------------|
E|---------------------------------------------------|

      D9/F#                     Am
E|---------------------------------------------------|
B|-3-------3-------3---1-----0------------1----------|
G|-----2-------2-----------------2----2-------2------|
D|---0-------0-------0-------0------2-------2--------|
A|-------------------------------0------0------------|
E|-2-----2---------3-----3---------------------------|

      Am/G                D9/F#
E|---------------------------------------------------|
B|-1-------1-------3---3---3-------3---1---0---------|
G|-----2-------0---------------2---------------------|
D|---2-------2-------0-------0-------0---------------|
A|-----------------------------------------0---------|
E|-3-----3---------2-----2---------3-----3-----------|

     Am
E|---------------------------------------------------|
B|---------0-----0h1---3----1-------1----------------|
G|-2---2-------2-------0--------0-------0------------|
D|---2-------2----------------2-------2--------------|
A|-0-----0-------------2----3-----3------------------|
E|---------------------------------------------------|

E|----------------0----------------------------------|
B|-3-------3--------------1------1-------1-----------|
G|-----0-------0------2-------2------2-------0-------|
D|---0-------0------2-------2------2-------2---------|
A|-2-----2--------0-----0--------0-----0-------------|
E|---------------------------------------------------|

E|-3----3----3-------3--1---0------------0-----------|
B|---------------3-------------3----3--------1-------|
G|---0---------0----------2----2-----------------2---|
D|-------------------0------0----------2---2---2-----|
A|---------------------------------------------------|
E|-3------3-------------------------0----------------|

E|---------------------------------------------------|
B|-1-----1----3-------1-------1----------------------|
G|-----2------0-----------0-------0------------------|
D|---2------------------2-------2--------------------|
A|-0-----0----2-------3-----3------------------------|
E|---------------------------------------------------|

E|----------------0----------------------------------|
B|-3-------3--------------1------1-------1-----------|
G|-----0-------0------2-------2------2-------0-------|
D|---0-------0------2-------2------2-------2---------|
A|-2-----2--------0-----0--------0-----0-------------|
E|---------------------------------------------------|

E|-3----3----3-------3--1---0------------0-----------|
B|---------------3-------------3----3--------1-------|
G|---0---------0----------2----2-----------------2---|
D|-------------------0------0----------2---2---2-----|
A|---------------------------------------------------|
E|-3------3-------------------------0----------------|

E|---------------------------------------------------|
B|-1-------1-------3-------3------3---1----0---------|
G|-----2-------0-------2-------2---------------------|
D|---2-------2-------0-------0------0------0---------|
A|-0-----0-------------------------------------------|
E|-----------------2-----2--------3-----3------------|

E|---------------------------------------------------|
B|---------1------1-------1-------3---3---3----------|
G|-2---2-------2------2-------0---------------2------|
D|---2-------2------2-------2-------0-------0--------|
A|-0-----0-------------------------------------------|
E|----------------3-----3---------2-----2------------|

E|--------------0-----------------0----0-----0-------|
B|-3---1----3-------------0--------------------------|
G|---------------------------------------------------|
D|---0----------------5-------5----------------------|
A|----------0-------7-------7-------7-----------7----|
E|-3-----3------0-------0---------0-------0----------|

E|---------------------------------------------------|
B|----------0-------0--------0------6--------0-------|
G|-7----7--------7-------7-------0-------5-------5---|
D|----5--------5-------5-------0-------3-------3-----|
A|-0------0---------0------0--------0------0---------|
E|---------------------------------------------------|

E|-------3--------5----------------------------------|
B|-0-----------------------0-------0--------0--------|
G|-----5------5--------5-------5--------5--------0---|
D|---3------3--------3-------3--------3--------0-----|
A|-0-----0--------0------0---------0------0----------|
E|---------------------------------------------------|

E|-0-------------------------------------------------|
B|-----------1-------0----------0--------------------|
G|-------2--------2--------2----------0--------------|
D|----2--------2--------2----------2-----------------|
A|-0-------0---------0--------0----------------------|
E|---------------------------------------------------|

E|---------------------------------------------------|
B|-3--1--0-----1--3--------0--1--3-------------------|
G|--------------------0h2--------------0-------------|
D|----0-----------0-----------------0----------------|
A|-------------------------0-------------------------|
E|-3--------3---------3----------3-------------------|

E|---------------------------------------------------|
B|-1--0--------0--1-----------0--1-----0-------------|
G|-------2--------------0--2--------2----------------|
D|----3-----------3--3-----------3-------------------|
A|---------------------------------------------------|
E|-1--------1--------1-------------------------------|

E|---------------------------------------------------|
B|-------------------0h1p0---------------------------|
G|-2-----------2------------2p0h2p0------------------|
D|-------3--------3-------------------2p0------------|
A|----3----------------------------------------------|
E|-1--------1----------------------------------------|

E|---------------------------------------------------|
B|-------------1--------0-----------0----------------|
G|-------2-----------2--------2-----------0----------|
D|-2--2-----------2--------2-----------2-------------|
A|-0--------0-----------0--------0-------------------|
E|---------------------------------------------------|

E|---------------------------------------------------|
B|-3--1--0-----1--3-----------0--1--3----------------|
G|--------------------0---2---------------0----------|
D|----------------0-----------0--------0-------------|
A|----0----------------------------------------------|
E|-3--------3---------3-------------3----------------|

E|---------------------------------------------------|
B|-1--0--------0--1------------0--1-----0------------|
G|-------2---------------0--2--------2---------------|
D|----3-----------3---3-----------3------------------|
A|---------------------------------------------------|
E|-1--------1---------1------------------------------|

E|------------------------------------0--------------|
B|-------------------0h1p0-----0h1h3-----6-----------|
G|-2-----------2------------2------------------------|
D|-------3--------3----------------------------------|
A|----3----------------------------------------------|
E|-1--------1----------------------------------------|

E|-3-------------------------------------------------|
B|-------------5---------5-----------5---------------|
G|-------5-----------5---------5-----------5---------|
D|----5-----------5---------5-----------5------------|
A|-3--------3------------3--------3------------------|
E|---------------------------------------------------|

E|-3h5p3------3--------------------------------------|
B|---------6-----6p5p3h5p3h5p3-----3-----------------|
G|------------------------------5-----5--4-----------|
D|---------------------------------------------------|
A|-3-------------------------------------------------|
E|---------------------------------------------------|

E|---------------------------------------------------|
B|-------------1-----------0-------------------------|
G|-2-----2-----------2-----------0-------------------|
D|-2--2-----------2-----------2----------------------|
A|-0--------0-----------0----------------------------|
E|---------------------------------------------------|

E|---------------------------0--------0-----5--------|
B|----0h1-----0h1-----0h1h3-----1h3------6-----------|
G|-2-------2-------2---------------------------------|
D|---------2-----------------------------------------|
A|-0--------------------0----------------------------|
E|---------------------------------------------------|

E|-3-------------------------------------------------|
B|-------------5---------5-----------5---------------|
G|-------5-----------5---------5-----------5---------|
D|----5-----------5---------5-----------5------------|
A|-3--------3------------3--------3------------------|
E|---------------------------------------------------|

E|-3h5p3------3--------------------------------------|
B|---------6-----6p5p3h5p3h5p3-----3-----------------|
G|------------------------------5-----5p4------------|
D|---------------------------------------------------|
A|-3-------------------------------------------------|
E|---------------------------------------------------|

E|---------------------------------------------------|
B|-------------1---------0-----------0---------------|
G|-2-----2-----------2---------2-----------2---------|
D|----2-----------2---------2-----------2------------|
A|-0--------0------------0--------0------------------|
E|---------------------------------------------------|

E|---------------------------------------------------|
B|-3-----------3---------1-------------3-------------|
G|-------2-----------2---------2-------0-------------|
D|----2-----------2---------2------------------------|
A|-0--------0------------0--------0----2-------------|
E|---------------------------------------------------|

E|---------------------------------------------------|
B|-1-----------1---------3-----------3---------------|
G|-0-----0-----------0---------0-----------0---------|
D|----2-----------2---------0-----------0------------|
A|-3--------3------------2--------2------------------|
E|---------------------------------------------------|

E|-0-------------------------------------------------|
B|-------------1---------1-----------1---------------|
G|-------2-----------2---------2-----------0---------|
D|----2-----------2---------2-----------0------------|
A|-0--------0------------0--------2------------------|
E|---------------------------------------------------|

E|-3-----3-----3/5-----3--1------0-------------------|
B|------------------3----------------3---------------|
G|----0----------0-----------2-------2---------------|
D|---------------------0---------0-------------------|
A|---------------------------------------------------|
E|-3--------3----------------------------------------|

E|----1p0--------------------------------------------|
B|-3----------------1-----------1----3---------------|
G|------------2--------------2-------0---------------|
D|----2----------2--------2--------------------------|
A|-0-------0-----------0--------0----2---------------|
E|---------------------------------------------------|

E|------------------------0--------------------------|
B|-1------------1---------------3--------------------|
G|-0------0-----------0---------------0-----0--------|
D|-----2-----------2---------0-----------0-----------|
A|-3---------3------------2--------2-----------------|
E|---------------------------------------------------|

E|-0-------------------------------------------------|
B|----3p1------------1---------------1---------------|
G|-------------2---------------2-----------0---------|
D|----2-----------2---------2-----------0------------|
A|-0--------0------------0--------0------------------|
E|---------------------------------------------------|

E|-3------3-----3/5------3--1------0-----------------|
B|-------------------3-----------------3-------------|
G|-----0----------0------------2-------2-------------|
D|-----------------------0---------0-----------------|
A|---------------------------------------------------|
E|-3---------3---------------------------------------|

E|-------0-----------3/5-----------------------------|
B|-3-----1-------------------------------------------|
G|-------------2--------------2-----2-----2----------|
D|----2-----2-----2--------2-----------0-------------|
A|-0-------------------0---------0-------------------|
E|---------------------------------------------------|

E|---------------------------------------------------|
B|-3-----3-----3--------3-----1-------0--------------|
G|-------------------2-------------------------------|
D|----0-----------0--------0----------0--------------|
A|---------------------------------------------------|
E|-2--------2-----------3--------3-------------------|

E|-0-------------------------------------------------|
B|-------------1---------1-----------1---------------|
G|-------2-----------2---------2-----------0---------|
D|----2-----------2---------2-----------2------------|
A|-0--------0----------------------------------------|
E|-----------------------3--------3------------------|

E|----------------------------0---1------------------|
B|-3-----------3--------3---------0------------------|
G|-------2-----------2-------------------------------|
D|----0-----------0--------0-------------------------|
A|---------------------------------------------------|
E|-2--------2-----------3----------------------------|

E|-0-------------------------------------------------|
B|-------------1---------1-----------1---------------|
G|-------2-----------2---------2-----------0---------|
D|----2-----------2---------2-----------2------------|
A|-0--------0----------------------------------------|
E|-----------------------3--------3------------------|

E|---------------------------------------------------|
B|-3-----------3---------3-----1-------0-------------|
G|-------2-----------2-------------------------------|
D|----0-----------0---------0----------0-------------|
A|---------------------------------------------------|
E|-2--------2------------3--------3------------------|

E|-0-------------------------------------------------|
B|-------------1---------1-----------1---------------|
G|-------2-----------2---------2-----------0---------|
D|----2-----------2---------2-----------2------------|
A|-0--------0----------------------------------------|
E|-----------------------3--------3------------------|

E|---------------------------------------------------|
B|-3------3-----3--------3---------------------------|
G|------------------------------0-----0--------------|
D|-----0--------------2------0-----2-----------------|
A|-----------------0---------------------------------|
E|-2---------2-----------3---------------------------|

E|---------------------------------------------------|
B|--------------1--------0-----------0---------------|
G|-2------2-----------2--------2-----------2---------|
D|-----2-----------2--------2-----------2------------|
A|-0---------0-----------0--------0------------------|
E|---------------------------------------------------|

E|---------------------------------------------------| |
B|-3-----------3---------1-----------1---------------| |
G|-------2-----------2---------2-----------2---------| |
D|----2-----------2---------2-----------2------------| |
A|-0--------0------------0--------0------------------| |
E|---------------------------------------------------| |
                                                       |  5x
E|---------------------------------------------------| |
B|-0-----------0-------------------------------------| |
G|-------2-----------2-------------------------------| |
D|----2-----------2----------------------------------| |
A|-0--------0----------------------------------------| |
E|---------------------------------------------------| |

E|---------------------------------------------------|
B|-3-----------3-------------------------------------|
G|-------2-----------2-------------------------------|
D|----2-----------2----------------------------------|
A|-0--------0----------------------------------------|
E|---------------------------------------------------|

E|---------------------------------------------------|
B|-1-----------1---------0-----------0---------------|
G|-------2-----------2---------2-----------2---------|
D|----2-----------2---------2-----------2------------|
A|-0--------0------------0--------0------------------|
E|---------------------------------------------------|
Composição de Kansas - Arranged by Sungha Jung
Colaboração e revisão:
  • Luis siqueira
  • Kevin Lage
22.549 exibições
    • ½ Tom
    • A
    • Bb
    • B
    • C
    • Db
    • D
    • Eb
    • E
    • F
    • F#
    • G
    • Ab
  • Adicionar à lista

    0 comentários

    Ver todos os comentários

    Conseguiu tocar?

    6 Tocaram 0 Ainda não

    Grave um vídeo tocando Dust In The Wind e nos envie!

    00:00 / 00:00
    outros vídeos desta música
    repetir qualidade Automático
    Outros vídeos desta música
    00:00 / 00:00
    Automático

    Cifra Club Pro

    Aproveite o Cifra Club com benefícios exclusivos e sem anúncios
    Cifra Club Pro
    Aproveite o Cifra Club com benefícios exclusivos e sem anúncios
    OK