Cifra Club

Aprenda

Bloody Well Right

Supertramp

Tab de baixo: Principal
Intro (piano)

G|-----------
D|-----------
A|-1---------  (then rest a few bars)
E|-----------

G|-----------
D|-----------
A|-1---------  (then rest a few bars)
E|-----------

G|-----------  :30
D|-----------
A|-1--------- 
E|---4-------

G|-------------------------  :50
D|-----------0-3-----------
A|-----1-3-4------4-3-1----  
E|-1-3------------------3-1

G|-----------------------  :55
D|-----------------------
A|—1—1—1—1—1—1—1---(1)---  repeat 7x
E|--------------(3)---(3)

Main Verse

G|---------------  1:30  "So you think your schooling's phony..."
D|---------------
A|----1—3---1----  
E|-3------3---1—3 

Chorus:  "Right right your're bloody well

G|-----------      
D|-----------
A|-----------
E|—4---------  2:15

G|---------3----  "Ha ha you're bloody well right..."
D|-----1—35—5\3—
A|—1—1---------1
E|——————————————

G|------------
D|------------
A|—1—3—1------
E|-------3—4—4

G|-----------------
D|-----3/5—5\3-----
A|—1—1---------3—1—
E|-----------------

G|------------
D|------------
A|—1—1—1—1----
E|---------5—4

Main Verse

Chorus

Outro — repeat and fade
Composição de Rick Davies / Roger Hodgson
Colaboração e revisão:
  • Khayam Steffens
113 exibições

0 comentários

Ver todos os comentários
00:00 / 00:00
outros vídeos desta música
repetir qualidade Automático
Outros vídeos desta música
00:00 / 00:00
Automático

Cifra Club Pro

Aproveite o Cifra Club com benefícios exclusivos e sem anúncios
Cifra Club Pro
Aproveite o Cifra Club com benefícios exclusivos e sem anúncios
OK