Enviar cifraEntrar

Eye of the Tiger

Survivor

Cifra: Principal
exibições 388.778
Tom: C
Introdução:

(Guitarra Base - Riff 1)
   P.M . . . . . . . . . . . . . . . . . . . . . .

E|---------------------------------------------------
B|---------------------------------------------------
G|---------------------------------------------------
D|---------------------------------------------------
A|-3-3-3-3-3-3-3-3-3-3-3-3-3-3-3-3-3-3-3-3-3-3-3-3---
E|---------------------------------------------------


(Guitarra Solo - Riff Principal)

E|---------------------------------------------------
B|---------------------------------------------------
G|-5----5--3--5----5--3--5----5----------------------  (2x)
D|-5----5--3--5----5--3--5----5--5--6----------------
A|-3----3--1--3----3--1--3----3--6--6----------------
E|-------------------------------3--4----------------


(Guitarra Solo - Variação do Riff Principal)

E|---------------------------------------------------
B|-----x-x-4--3--4~---4--3--4~---4-------------------
G|-5---x-x-3--3--3----3--3--3----3-------------------  (2x)
D|-5---x-x-3--3--3----3--3--3----3--5--6-------------
A|-3--------------------------------5--6-------------
E|-------------------------------------4-------------


E|---------------------------------------------------
B|---------------------------------------------------
G|-----5\--------------------------------------------
D|-x-x-5\--------------------------------------------
A|-x-x-3\--------------------------------------------
E|-x-x-----------------------------------------------


Primeira Parte:

(Riff 1)
Risin' up, back on the street
Did my time, took my chances
Went the distance, now I'm back on my feet
Just a man and his will to survive

So many times, it happens too fast
You change your passion for glory
Don't lose your grip on the dreams of the past
You must fight just to keep them alive

Primeiro Refrão:
         F5
It's the    eye of the tiger
            Eb5/F            Bb/F
It's the thrill of the fight
       F5                          Eb5/F  Bb/F
Risin' up to the challenge of our ri_____val
         F5                              Eb5/F           Bb/F
And the last known survivor stalks his prey in the night
          (Riff do Refrão)
And he's watchin' us all in the eye of the tiger

Segunda Parte:

(Guitarra Solo 1)

E|---------------------------------------------------
B|-/8~--8\6~--6h8\4~~--------------------------------
G|---------------------------------------------------
D|---------------------------------------------------
A|---------------------------------------------------
E|---------------------------------------------------


(Guitarra Solo 2)

E|---------------------------------------------------
B|---------------------------------------------------
G|-/8~--8\7~--7h8\5~~--------------------------------
D|---------------------------------------------------
A|---------------------------------------------------
E|---------------------------------------------------


(Riff 1)
Face to face, out in the heat
Hangin' tough, stayin' hungry
They stack the odds 'til we take to the street
For we kill with the skill to survive

Segungo Refrão:

         F5
It's the    eye of the tiger
            Eb5/F            Bb/F
It's the thrill of the fight
       F5                          Eb5/F  Bb/F
Risin' up to the challenge of our ri_____val
         F5                              Eb5/F           Bb/F
And the last known survivor stalks his prey in the night
          (Riff do Refrão)
And he's watchin' us all in the eye of the tiger

(Riff 1)

Terceira Parte:

Risin' up, straight to the top
Have the guts, got the glory

(Riff 1)
Went the distance, now I'm not gonna stop
Just a man and his will to survive

Terceiro Refrão:

         F5
It's the    eye of the tiger
            Eb5/F            Bb/F
It's the thrill of the fight
       F5                          Eb5/F  Bb/F
Risin' up to the challenge of our ri_____val
         F5                              Eb5/F           Bb/F
And the last known survivor stalks his prey in the night
          (Riff do Refrão)
And he's watchin' us all in the eye of the tiger

( Ab5 )

(Riff Principal 2x)

(Variação do Riff Principal)

The eye of the tiger (4x)

Riff do Refrão:

E|---------------------------------------------------
B|---------------------------------------------------
G|---------------------------------------------------
D|-/3-2-3-3/5-3-5-5/6~-------------------------------
A|---------------------------------------------------
E|---------------------------------------------------
  • 1
  • 2
  • 3
  • 4
  • 5
  • 6
  • 7
  • 8
  • 9
  • 10
  • 11
  • 12

    0 comentários

      mostrar mais comentários

      Conseguiu tocar?

      85tocaram1ainda não

      Grave um vídeo tocando Eye of the Tiger e mande pra gente!

      00:00 / 00:00
      outros vídeos desta música
      repetirqualidadeautomática
      • automática
      Outro vídeos desta música
        Capítulos
        • Início
        • Tocando a música
        • Configuração dos Efeitos
        • Tocando Introdução
        • Ensinando Guitarra Base - Riff 1
        • Ensinando Guitarra Solo - Riff Principal
        • Ensinando Variação do Riff Principal
        • Acordes do Refrão
        • Tocando Primeira Parte e Refrão
        • Ensinando Ritmo do Refrão
        • Ensinando Passagem do Refrão
        • Tocando Segunda Parte
        • Ensinando Riff da Segunda Parte - Guitarra 1
        • Ensinando Riff da Segunda Parte - Guitarra 2
        • Encerramento
        00:00 / 00:00
        automática
        • automática
        2 versões de Tab de baixoexibiçõescontribuições
        1 versão de Tab de bateriaexibiçõescontribuições
        1 versão de Tab de gaitaexibiçõescontribuições
        4 versões de Guitar Proformatodownloadscontribuição
        1 versão de Partiturasformatodownloadscontribuição
        fecharplay/pause subir/descer velocidade
          acordes
          fechar
          OK
          Feedback