Cifra Club

Times of trouble

Temple Of The Dog

Cifra: Versão 2 (violão e guitarra)
tom: C
all this is in order, but some of it repeats and stuff, if you know the song you wont 
any problem.

--------------------------------------|
--------------------------------------|
----------0---------------------------|
---------------3----------------------|
---------------3----------------------|
-(0)-1/3-------1----------------------|
when the spoon is hot
and the needles sharp
and you driftaway
I can hear you say
that the world in black
is upon your back
and your body shakes
so you ditch away
and you close the shades

--------------------------------------|
--------------------------------------|
--5-5-5-5-7----5-5-5-5-7--------------|
--5-5-5-5-7----5-5-5-5-7--------------|
--3-3-3-3-5----3-3-3-3-5--------------|
--------------------------------------|
no time to do it

--------------------------------------|
--------------------------------------|
-9---9-9--------------------5---------|
-9---9-9-2----2-2-2-2-22----5---------|
-7---7-7-2----2-2-2-2-22----3---------|
---------0----0-0-0-0-00--------------|
there gonna kill your time

--------------------------------------|
--------------------------------------|
-5-5-5-7-7-7--5-5-5-2-----------------|
-5-5-5-7-7-7--5-5-5-2-----------------|
-3-3-3-5-5-5--3-3-3-0-----------------|
--------------------------------------|
you gotta hold on to your time till you break through these times of

--------------------------------------|
--------------------------------------|
--------------------------------------|
--------------------------------------|
--2-----------------------------------|
---3-2-1~-----------------------------|
           trouble

-repeat everything

--------------------------------------|
--------------------------------------|
--------------------------------------|
-2-2-2-2-4-4-4-4-5-5-5-5-7-7-7-7------|
-2-2-2-2-4-4-4-4-5-5-5-5-7-7-7-7------|
-0-0-0-0-2-2-2-2-3-3-3-3-5-5-5-5------|
but if somebody left you
out on a ledge
if somebody pushed you
over the edge
if somebody loved you
then left you for dead
you gotta hold on to your time
till you break
through these times of

--------------------------------------|
--------------------------------------|
---------0----------------------------|
-----------3--------------------------|
-----------3--------------------------|
-(0)-1/3---1--------------------------|
              trouble

--------------------------------------|
-----------8~-------------------------|
-----------7~-------------------------|
-----------5~-------------------------|
--------------------------------------|
--------------------------------------|
         gling.


-terrific song.
00:00 / 00:00
Outros vídeos desta música
Repetir
Outros vídeos desta música
Composição de Chris Cornell / Stone Gossard
368 exibições
    • ½ Tom
    • A
    • Bb
    • B
    • C
    • Db
    • D
    • Eb
    • E
    • F
    • F#
    • G
    • Ab
  • Adicionar à lista

    0 comentários

    Ver todos os comentários

    Conseguiu tocar?

    0 Tocaram 0 Ainda não

    Grave um vídeo tocando Times of trouble e nos envie!

    00:00 / 00:00

    Cifra Club Pro

    Aproveite o Cifra Club com benefícios exclusivos e sem anúncios
    Cifra Club Pro
    Aproveite o Cifra Club com benefícios exclusivos e sem anúncios
    OK