Cifra Club

In The Dark

The Birthday Massacre

Tab de baixo: Principal
Selo Cifra Club: esta cifra foi revisada para atender aos critérios oficiais da nossa Equipe de Qualidade.
tom: Afinação:
Intro - 4x:
G|--------------------------------------------------------------------------|
D|--------------------------------------------------------------------------|
A|--------------------------------------------------------------------------|
D|-0-00000-00000-0000-01h30-------------------------------------------------|

Verso1 - 16x:
            All these brokens...  
G|--------------------------------------------------------------------------|
D|--------------------------------------------------------------------------|
A|--------------------------------------------------------------------------|
D|-00-00x-------------------------------------------------------------------|

Refrão - 2x:
            I'm in the dark... 
G|--------------------------------------------------------------------------|
D|--------------------------------------------------------------------------|
A|--------------------------------------------------------------------------|
D|-0-00-000-3-33-333-5-55-555-2-22-222--------------------------------------|

(Intro)

Verso 2 - 16x :
              Every minute... 
G|--------------------------------------------------------------------------|
D|--------------------------------------------------------------------------|
A|--------------------------------------------------------------------------|
D|-0-00x--------------------------------------------------------------------|

Refrão - 2X :
            I'm in the dark... 
G|--------------------------------------------------------------------------|
D|--------------------------------------------------------------------------|
A|--------------------------------------------------------------------------|
D|-0-00-000-3-33-333-5-55-555-2-22-222--------------------------------------|
  
Refrão - 2x:
            I losing my faith... 
G|--------------------------------------------------------------------------|
D|--------------------------------------------------------------------------|
A|--------------------------------------------------------------------------|
D|-0-00-000-3-33-333-5-55-555-2-22-222--------------------------------------|

Verso 3 - 2x:
           The more weak the day... 
G|--------------------------------------------------------------------------|
D|--------------------------------------------------------------------------|
A|--------------------------------------------------------------------------|
D|-3333333/5555555/3333333/7777777/5555555/3333333/7777777/5555555----------|

Refrão - 2x:
            I'm in the dark... 
G|--------------------------------------------------------------------------|
D|--------------------------------------------------------------------------|
A|--------------------------------------------------------------------------|
D|-0-00-000-3-33-333-5-55-555-2-22-222--------------------------------------|

(Intro)
Outros vídeos desta música
    320 exibições

    Afinação da cifra

    Afinador online

    0 comentários

    Ver todos os comentários

    Entre para o Cifra Club PRO

    Tenha acesso a benefícios exclusivos no App e no Site

    • Chega de anúncios

    • Badges exclusivas

    • Mais recursos no app do Afinador

    • Atendimento Prioritário

    • Aumente seu limite de lista

    • Ajude a produzir mais conteúdo

    Cifra Club Pro

    Aproveite o Cifra Club com benefícios exclusivos e sem anúncios
    Cifra Club Pro
    Aproveite o Cifra Club com benefícios exclusivos e sem anúncios
    OK