Cifra Club

Aprenda

19th Nervous Breakdown

The Rolling Stones

Tab de baixo: Principal
                           kind of...     meet at...    dismal...
|-----|-----|-----|-----|--------------|-------------|--------------|-------------|
|-----|-----|-----|-----|*-------------|-------------|--------------|-------------|
|-----|-----|-----|-----|*----7--7--5--|-------------|-----7--7--5--|-------------|
|-----|-----|-----|-----|--0-----------|--0--3/4--7--|--0-----------|--0--3/4--7--|

   of the...      much too...   up and...                    seems...       have
|--------------|-------------|--------------|-------------|--------------|-------------|
|--------------|-------------|--------------|-------------|-----7--7--5--|-------------|
|-----7--7--5--|-------------|-----7--7--5--|-------------|--0-----------|--0--3/4--7--|
|--0-----------|--0--3/4--7--|--0-----------|--0--3/4--7--|--------------|-------------|

                                though...      can't...
|--------------|-------------|--------------|-------------|--------------|-------------|
|-----7--7--5--|-------------|--------------|-------------|--------------|-------------|
|--0-----------|--0--3/4--7--|-----7--7--5--|-------------|-----7--7--5--|-------------|
|--------------|-------------|--0-----------|--0--3/4--7--|--0-----------|--0--3/4--7--|

   stop
|-------|-----|-------|-----|PARA 
|--(9)--|-----|--(7)--|-----|O CODA
|-------|-----|-------|-----|
|--7----|-----|--5----|-----|

   comes                        comes                        comes
|--------------|-------------|--------------|-------------|--------------|-------------|
|--------------|-------------|--------------|-------------|-----7--7--5--|-------------|
|-----7--7--5--|-------------|-----7--7--5--|-------------|--0-----------|--0--3/4--7--|
|--0-----------|--0--3/4--7--|--0-----------|--0--3/4--7--|--------------|-------------|

                                comes your..
|--------------|-------------|--------------|-------------|--------------|------------------|
|-----7--7--5--|-------------|--------------|-------------|--------------|------------------|
|--0-----------|--0--3/4--7--|-----7--7--5--|-------------|-----7--7--5--|------------------|
|--------------|-------------|--0-----------|--0--3/4--7--|--0-----------|--0--3/4--7--(5)--|

 1_______                     2_______
                                oh             who's..        blame?
|--------------|-------------|--------------|--------------|--------------|--------------|
|--------------|------------*|--------------|--------------|--------------|--------------|
|-----7--7--5--|------------*|--------------|--------------|--------------|--------------|
|--0-----------|--0--3/4--7--|--7--7--7--7--|--7--7--7--7--|--7--7--7--7--|--7--7--7--7--|

   girl's         just...                                      nothing...
|--------------|--------------|--------------|--------------|-------------|-----|-----|-----|
|--------------|--------------|--------------|--------------|-------------|-----|-----|-----|
|--7--7--7--7--|--7--7--7--7--|--7--7--7--7--|--7--7--7--7--|--7----------|-----|-----|-----|
|--------------|--------------|--------------|--------------|-------------|-----|-----|-----|

   please
|--------------|--------------|--------------|--------------|
|--------------|--------------|--------------|--------------|
|--7--7--7--7--|--7--7--7--7--|--7--7--7--7--|--7--7--7--7--|
|--------------|--------------|--------------|--------------|

CODA                                   oh        who's..   blame?              girl's    just
|-----|-----|-----|-----|-----|-----|---------|---------|---------|---------|---------|---------|
|-----|-----|-----|-----|-----|-----|--9---9--|--9---9--|--9---9--|--9---9--|---------|---------|
|-----|-----|-----|-----|-----|-----|---------|---------|---------|---------|--7---7--|--7---7--|
|-----|-----|-----|-----|-----|-----|---------|---------|---------|---------|---------|---------|

                                     please
|---------|-----|-----|-----|-----|--------------|--------------|--------------|--------------|
|---------|-----|-----|-----|-----|--------------|--------------|--------------|--------------|
|--7---7--|--7--|-----|-----|-----|--7--7--7--7--|--7--7--7--7--|--7--7--7--7--|--7--7--7--7--|
|---------|-----|-----|-----|-----|--------------|--------------|--------------|--------------|

|--------------|-------------|--------------|-------------|--------------|-------------|
|--------------|-------------|--------------|-------------|--------------|-------------|
|-----7--7--5--|-------------|-----7--7--5--|-------------|-----7--7--5--|-------------|
|--0-----------|--0--3/4--7--|--0-----------|--0--3/4--7--|--0-----------|--0--3/4--7--|

|--------------|-------------|--------------|-------------|--------------|
|--------------|-------------|--------------|-------------|--------------|
|-----7--7--5--|-------------|-----7--7--5--|-------------|-----7--7--5--|
|--0-----------|--0--3/4--7--|--0-----------|--0--3/4--7--|--0-----------|

|--------------|-------------|--------------|-------------|--------------|-------------|
|--------------|-------------|--------------|-------------|*----7--7--5--|-------------|
|-----7--7--5--|-------------|-----7--7--5--|-------------|*-0-----------|-------------|
|--0-----------|--0--3/4--7--|--0-----------|--0--3/4--7--|--------------|--0--3/4--7--|

|--------------|-------------|
|-----7--7--5--|------------*|
|--0-----------|------------*|
|--------------|--0--3/4--7--|
Composição de Keith Richards / Mick Jagger
Colaboração e revisão:
  • valdir júnior
257 exibições

0 comentários

Mostrar mais comentários

Conseguiu tocar?

0 Tocaram 0 Ainda não

Grave um vídeo tocando 19th Nervous Breakdown e mande pra gente!

00:00 / 00:00
outros vídeos desta música
repetir qualidade Automático
Outros vídeos desta música
00:00 / 00:00
Automático

Cifra Club Pro

Aproveite o Cifra Club com benefícios exclusivos e sem anúncios
7 dias grátis
Cifra Club Pro
Aproveite o Cifra Club com benefícios exclusivos e sem anúncios
7 dias grátis
OK