Cifra Club

Aprenda

Let It Bleed

The Rolling Stones

Tab de baixo: Principal
g-----|-----|-----|-----|--------------------|-------------2--5--|--5/7--5------------------|
d-----|-----|-----|-----|--5---5---5--5---5--|--5---5---5--------|--------------------------|
a-----|-----|-----|-----|--------------------|-------------------|----------3---3--3--------|
e-----|-----|-----|-----|--------------------|-------------------|---------------------3h5--|

                       need...
                       need...
|-------------------|-------------------|-------------------|----------------|-------------------|
|-------------------|*------------------|-------------------|----------------|-------------------|
|-------------------|*-3--3---3------3--|--3--3---3--3---3--|--8--8---8---0--|--8--8---7--8---8--|
|--8--8---8--8---8--|------------3------|-------------------|----------------|-------------------|

   want it...               well you...
   want it...               well you...
|------------------------|----------------------|---------------------|---------------------|
|---------------12-------|-----------12--9--12--|--12--10---10---2h3--|--5---------------5--|
|--10---10--10-------10--|--10---10-------------|---------------------|------3--3---5/7-----|
|------------------------|----------------------|---------------------|---------------------|

|-------------------|-----------------|----------------|---------------------|
|-------------------|--------------5--|-------------7--|---------------------|
|--3---3--3--3---3--|--3--3--3--7-----|--8--8---8------|--8--8---8--7--8--9--|
|-------------------|-----------------|----------------|---------------------|

   want to...          well you can...
   want to...          well you can...
|-------------------|--------------------7--|--7---------------|------------------|
|-------------------|---------------7h9-----|-----10--10---10--|------------------|
|--10--10---10--10--|--10--10---10----------|------------------|------------10/7--|
|-------------------|-----------------------|------------------|--8---8--8--------|

|----------------------|--------9---9---------|-----------------------|-----------------10---------|
|--------6------6------|--9-------------------|-------------7---------|--------10---10------10-----|
|--7--7------7------7--|-----7----------7--7--|--8---10--8-----8---8--|--8--8-------------------8--|
|----------------------|----------------------|-----------------------|----------------------------|

|-----------------------|------------------|--5/7--5--5---5---5--|--5/7--5------------------|
|-----------12---9--12--|---------------9--|---------------------|--------------------------|
|--10---10--------------|--10---10--10-----|---------------------|----------3---3--3--5--6--|
|-----------------------|------------------|---------------------|--------------------------|

|------------------------|---------------------|------------------10--|--10---10----------------|
|--------6-----9---6--9--|---------6-----9-----|----------10----------|-----------8/10--10--10--|
|--7--7-----7------------|--7---7-----7-----7--|--8---8-------8-------|-------------------------|
|------------------------|---------------------|----------------------|-------------------------|

                                                        1____________________________________________
|----------------------|-------------------------------|------------------------|-------5/7--5--7--5--|
|-----------12--9------|------------------12-------12--|------------------------|--------------------*|
|--10---10---------12--|--10---10--12/14-------14------|------------------------|--------------------*|
|----------------------|-------------------------------|--15---15--15--15---15--|--15-----------------|

 2________________________________________________________________
|----------------------------------|-------------------------------|
|---------------10h12--12--12--12--|------12-----12-----12-----12--|
|--10---10--10---------------------|--14-----14-----14-----14------|
|----------------------------------|-------------------------------|

   need...
|------------------------|-------------------------------|-------------------|-----------------------|
|--10---10--10--10---10--|--10--10---10--10--10----------|-------------------|-----------------------|
|------------------------|-----------------------10--10--|--8---8--8--8---8--|--8--8---7--8--7--8--9-|
|------------------------|-------------------------------|-------------------|-----------------------|

|-------------------|---------------------------|-----------------------|
|-------------------|-----------------------12--|--10/12--10---10---10--|
|--10-------10--10--|--10---10---10--12/14------|-----------------------|
|-------10----------|---------------------------|-----------------------|

   take my arm           take my leg...
|---------------------|-------------------------------|--------------------|
|---------------------|--10--10--10--10---------------|--------------------|
|-----------------10--|------------------7--8--9--10--|--8---8-------------|
|--8---8---8---8------|-------------------------------|----------8--8---8--|

   take me head
|---------------------|------------------------|----------------------------|-------------------------|
|---------------------|------------------------|----------------------------|--10--12--10-------------|
|--8---8--8--7--8--9--|--10---10------10---10--|--10-----------10-----------|-------------------------|
|---------------------|-----------10-----------|------10---10------10---10--|---------------8---8---8-|

|-----------------------------|-------------------------------|---------------------------------|
|--10--12--10-----------------|--12--10--12--10--12--10---10--|--12--10--12--10--12--10--7------|
|-----------------------------|-------------------------------|-----------------------------10--|
|--------------8--8--8--8--8--|-------------------------------|---------------------------------|

                         yeah and...       want it...               well you...
|----------------|----------------------|--------------------|------------------------|
|----------------|----------------------|--------------------|------------------------|
|--8---8---8--8--|--8---8---8--7--8--9--|--10---10---10--10--|--10--10---10--10---10--|
|----------------|----------------------|--------------------|------------------------|

|-------------------------------|--------------------------|-------------------|
|--10--10--10---10-------10/12--|--10--10---10--10---------|-------------------|
|--------------------10---------|-------------------10--8--|------------10--7--|
|-------------------------------|--------------------------|--8---8--8---------|

|----------------------|-------------------|--------------------|-------------------|
|----------------------|-------------------|--------------------|-------------------|
|---------------10--7--|--8--8---8--8---8--|--10---10--10---10--|--10--10---10--10--|
|--8--8---8--8---------|-------------------|--------------------|-------------------|

|------------------------|---------------------------|--------------------|-------------------|
|--12--10--10---10---10--|--10--10---7---------------|--10----------------|-------------------|
|------------------------|--------------10--10---10--|--------------------|-------------------|
|------------------------|---------------------------|------8--8---8---8--|--8---8--8--8---8--|

|----------------|----------------|--------------------|-------------------|----------------------|
|----------------|----------------|--------------------|-------------------|-------------------5--|
|--8---8--8---8--|--8---8--8---8--|--10----------------|-------------------|--3--3--3---3--3------|
|----------------|----------------|-------3---3-----3--|--3---3--3--3---3--|----------------------|

|--5--------------------|-------------------|--------------------|-----------------------------|
|-----5-----------------|-------------------|--------------------|---------------10------------|
|---------3--3--10--10--|-------------------|--------------------|--8--8--10/12------8--8------|
|-----------------------|--8--8--8---8---8--|--8---8---8--8---8--|--------------------------8--|

|-------------------|------------------------|-----------------------------|
|-------------------|------------------------|-----------------------7--9--|
|--8--8---8--8---8--|--10--10---10--10---10--|--10--10---10--10--10--------|
|-------------------|------------------------|-----------------------------|

                                                            get it on rider
|------------------------|-------------------------------|------------------------|
|--10----------------10--|--10------10-------------------|--------10------10------|
|------------------------|------10-------10--10--10--10--|------------------------|
|------8--8---8--8-------|-------------------------------|--8--8-------8-------8--|

                                get it on rider
|----------------------------|--------10---10-------------|--------------------------|
|--------10------10--10--10--|------------------8h10--10--|--------------------------|
|----------------------------|--8--8----------------------|--8--8--8--8--8--7--8--9--|
|--8--8-------8--------------|----------------------------|--------------------------|

   get it on rider                you can bleed...
|------------------12----------|----------12------12--12--12------|-----------------------|
|----------12-----------10h12--|--------------10--------------12--|-------------------10--|
|--10--10------10--------------|--10--10--------------------------|---------------10------|
|------------------------------|----------------------------------|--8--8--8---8----------|

|--------------------------------|--------------------|------------------------|
|------------10--10--10--10------|--------------------|------------------------|
|--------10------------------10--|--3---3---3--3---3--|--3--3---0--3--3--3--3--|
|--8--8--------------------------|--------------------|------------------------|

   get it on rider           yeah                you can be...
|-------------------|-------------------------|--------------------|---------------------|
|--3----------------|-------------------------|--------------------|---------5--5--5--5--|
|-------------------|-------------------------|-----------------5--|---------------------|
|-----1--1---1---1--|--1--1---1---1--0--1--2--|--3---3---3--3------|--3--3---------------|

|--------------------|-----------------------|----------------------|--------10-------------|
|--------------------|-----10--10--10--------|--------10---10-------|-------------10--------|
|--3--3---10-----10--|-----------------8h10--|------------------10--|--8--8-----------8/10--|
|-------------8------|--8--------------------|--8--8----------------|-----------------------|

                                                         you can come...
|---------------------|-------------------------------|--12---------------------------------|
|-----10---10---------|----------12------12-----------|-------------------------12--14--12--|
|--8------------8/10--|--10--10------10------10---10--|------10--10--10--12/14--------------|
|---------------------|-------------------------------|-------------------------------------|

|---------------------------|---------------------------|------------------------|
|--12--10--10---10--10--10--|--10--10--10---------------|------------------------|
|---------------------------|---------------10--10--10--|------------------------|
|---------------------------|---------------------------|--8--8--8--8--8--8---8--|

                          come on come on
|----------------------|---------------------|---------------------------|
|----------------------|---------------------|-------------------10------|
|------------7/12--10--|--8--8--8--8--8---8--|--8--8---8--10/12------12--|
|--8---8--8------------|---------------------|---------------------------|

   let it on...
|-------------------------------|-----------------------------|------------------------------|
|-------------------------------|-----------------12------12--|--10/12--10--10---10--10--10--|
|--10--10--10--10--10--10---10--|--10--10--12/14------14------|------------------------------|
|-------------------------------|-----------------------------|------------------------------|
Composição de Keith Richards / Mick Jagger
Colaboração e revisão:
  • valdir júnior
464 exibições

0 comentários

Mostrar mais comentários

Conseguiu tocar?

0 Tocaram 0 Ainda não

Grave um vídeo tocando Let It Bleed e mande pra gente!

00:00 / 00:00
outros vídeos desta música
repetir qualidade Automático
Outros vídeos desta música
00:00 / 00:00
Automático

Cifra Club Pro

Aproveite o Cifra Club com benefícios exclusivos e sem anúncios
7 dias grátis
Cifra Club Pro
Aproveite o Cifra Club com benefícios exclusivos e sem anúncios
7 dias grátis
OK