Cifra Club

Era Uma Vez

Thiaguinho

Cifra: Principal (violão e guitarra)
Selo Cifra Club: esta cifra foi revisada para atender aos critérios oficiais da nossa Equipe de Qualidade.
tom: D
[Intro] D  D7M  Am7

[Tab - Riff 1]

E|-3-2-1-0---0-------------|
B|---------3---------------|
G|-------------------------|
D|-------------------------|
A|-------------------------|
E|-------------------------|

         D
Era uma vez
                                      D7M
Um na cervejinha, outro no vinho francês
                                  Bb7M
Duas almas lindas machucadas talvez
                                          Em
Será que essa história bate com a de vocês?
A7(13)                    D
Eu só sei que pirei e notei
                                D7M
Um olhar com medo de se apaixonar
                                Bb7M 
Eu ficando louco com esse jeito de olhar
                Gm7                        Em  Riff 1
Mandei logo um shot pra tentar me soltar e fui lá
        G6/9
Vou te falar
                                D9/F#
Que luz é essa cor de sol, olho de mar
                               C9
Eu vagabundo fiquei mudo e sem assunto pra puxar

[Tab - Riff 2]

E|-5--5---2--------5---5---|
B|----------5-3-5----------|
G|-------------------------|
D|---7--7------------7---7-|
A|-------------------------|
E|-------------------------|

[Tab - Riff 3]

E|------------2-3----------|
B|------2-3-5--------------|
G|-2--4--------------------|
D|-------------------------|
A|-------------------------|
E|-------------------------|

Riff 2
Tive uma ideia genial
       D                          D7M
Catei o violão do cara que tava no bar
                                G7M 
Olhei pra cara dela e comecei cantar

Me pega logo antes que eu pegue você
Riff 3
Essa é a hora de fazer acontecer
    D                                  D7M
Chamei, garçom traz a garrafa pra gente brindar
                               G7M
Daqui a pouco tem festa particular

É comemoração nós dois no meu apê

[Tab - Riff 4] 
E|------5------------------|
B|-------------------------|
G|--2----------------------|
D|-------------------------|
A|0------------------------|
E|-------------------------|

[Tab - Riff 5]

E|--5--5-------------------|
B|-------------------------|
G|-------------------------|
D|-------------------------|
A|-------------------------|
E|--5--5-------------------|

Riff 4
Êêêê
        D
Bora bebê
        D7M
Bora bebê
        G7M
Bora bebê
Riff 5
Ah, bora bebê?
Outros vídeos desta música
20.362 exibições
    • ½ Tom
    • A
    • Bb
    • B
    • C
    • Db
    • D
    • Eb
    • E
    • F
    • F#
    • G
    • Ab
  • Adicionar à lista

Afinação da cifra

Afinador online

    0 comentários

    Ver todos os comentários

    Entre para o Cifra Club PRO

    Tenha acesso a benefícios exclusivos no App e no Site

    • Chega de anúncios

    • Mais recursos no app do Afinador

    • Atendimento Prioritário

    • Aumente seu limite de lista

    • Ajude a produzir mais conteúdo

    Cifra Club Pro

    Aproveite o Cifra Club com benefícios exclusivos e sem anúncios
    Cifra Club Pro
    Aproveite o Cifra Club com benefícios exclusivos e sem anúncios
    OK