Cifra Club

Aprenda

Abaixa o Som, Vizinho

Tierry Coringa

Cifra: Principal (violão e guitarra)
tom: C
[Intro] C  Dm  F  C  G

E|----------------------------------------------------|
B|----------------------------------------------------|
G|----------------------------------------------------|
D|---------------2-3/5--------------------------------|
A|---3-3-3h5------------------------------------------|
E|----------------------------------------------------| (2x)

E|----------------------------------------------------|
B|----------------------------------------------------|
G|----------------------------------------------------|
D|---------2-3-3-2--------3-3-2----2----3-3-2---2-----|
A|-3-3-3h5----------5-4h5--------5----3-------5---3---|
E|----------------------------------------------------|

E|----------------------------------------------------|
B|----------------------------------------------------|
G|----------------------------------------------------|
D|-----------------2/5--------------------------------|
A|------3h5h5-3---------------------------------------|
E|-3h5-----------3------------------------------------|

 C                        G
Chorei com a novelas das seis
                      Dm
E nas das nove eu desliguei
                F
Ao lembrar eu desabei, chorei

 C                  G
Mudei do rádio a estação
                    Dm
Quando tocou nosso modão
                     F
Tentei arruma uma distração
              Dm
Não deu certo eh

                    F
Que você batuca em mim
           C          G
Parece percussão da Ivete
 Dm               F
E o vizinho pra pirraça
                    C
Pôs o Pen-drive do bar
                    G
Me diz como é que esquece

                 C
Abaixa o som, vizinho

Sei que não é sua culpa, mas
                Dm
Abaixa o som, vizinho

Judiação da gota e tome
             F
Simone e Simaria, Pablo e Marília Mendonça
                  C
Tanta sofrência assim
                      G
Meu coração não dá conta

                 C
Abaixa o som, vizinho

Sei que não é sua culpa, mas
                Dm
Abaixa o som, vizinho

Judiação da gota e tome
             F
Simone e Simaria, Pablo e Marília Mendonça
                  C
Tanta sofrência assim
                      G
Meu coração não dá conta

                     ( Dm F C G )
Meu coração não dá conta 
 Dm                   F
E que você batuca em mim
            C         G
Parece percussão da Ivete
 Dm                F
E o vizinho pra pirraça
                    C
Pôs o Pen-drive do bar
                     G
Me diz como é que esquece

                 C
Abaixa o som, vizinho

Sei que não é sua culpa, mas
                Dm
Abaixa o som, vizinho

Judiação da gota e tome
             F
Simone e Simaria, Pablo e Marília Mendonça
                  C
Tanta sofrência assim
                      G
Meu coração não dá conta
                   ( F  G  C )
Meu coração não dá conta
Composição de Tierry Coringa
Colaboração e revisão:
  • Pablo Vinicius
257 exibições
    • ½ Tom
    • A
    • Bb
    • B
    • C
    • Db
    • D
    • Eb
    • E
    • F
    • F#
    • G
    • Ab
  • Adicionar à lista

    0 comentários

    Ver todos os comentários

    Conseguiu tocar?

    0 Tocaram 0 Ainda não

    Grave um vídeo tocando Abaixa o Som, Vizinho e nos envie!

    00:00 / 00:00
    outros vídeos desta música
    repetir qualidade Automático
    Outros vídeos desta música
    00:00 / 00:00
    Automático

    Cifra Club Pro

    Aproveite o Cifra Club com benefícios exclusivos e sem anúncios
    Cifra Club Pro
    Aproveite o Cifra Club com benefícios exclusivos e sem anúncios
    OK