Cifra Club

Aprenda

Time Is Mine

Tony Iommi

Cifra: Principal (violão e guitarra)
tom: C
|------------------------------------------------------------
|------------------------------------------------------------
|------------------------------------------------------------
|-11-----------------------------^^^-----------11-9----------
|--9--10^---10------11-10--9-----6^6--4---------9-7----------
|------8^----8-------9--8--7-----4^4--2----------------------

|------------------------------------------------------------
|------------------------------------------------------------
|------------------------------------------------------------
|-11-----------------------------^^^-------------------------
|--9--10^---10------11-10--9-----6^6--4----------------------
|------8^----8-------9--8--7-----4^4--2---------------------- x2

VERSE
     "Lift me up..."
|---|-14-~~~~~~~------------------------------------------------------|-14-
|-14|------^------------------------------------------------------14--|----
|---|------|----------------------------------------------------------|----
|---|-----(wah pedal)-------------------------------------------------|----
|---|-----------------------------------------------------------------|----
|---|-----------------------------------------------------------------|----
|   |                                                                 |
|---|-----------------------------------------------------------------|
|---|-----------------------------------------------------------------|
|---|-----------------------------------------------------------------|
|---|-4------------------------------------------------------/4^2-----|
|---|---------3^------3-----------4-3-2-------------------------------|
|---|-----------------------------------------4^4-----2---------------|
|   |                                                                 |
|---|-----------------------------------------------------------------|
|---|-----------------------------------------------------------------|
|---|---------2---------------2---------------2---------------2-------|
|---|-----4-------4-------4-------4-------4-------4-------4-------4---|
|---|-4---------------4---------------4---------------4---------------|
|---|-----------------------------------------------------------------|    x4

3RD PART
  "Time is mine..."
|--------------------------------------------------
|--------------------------------------------------
|--------------------------------------------------
|-11----11--9-11-15-11-------11--9-----------------
|--9-----9--7--9-12--9--------9--7----10----11-----
|-------------------------------------12-----9-----

|--------------------------------------------------
|--------------------------------------------------
|--------------------------------------------------
|-11----11--9-11-15-11-------11-13-14-16----14-13--
|--9-----9--7--9-12--9--------9-11-12-14----12-11--
|--------------------------------------------------

4TH PART
|-----------------------------------|------------------------------------|
|-----------------------------------|------------------------------------|
|-----------------------------------|------------------------------------|
|-----------------------------5-----|-----------------------------5------|
|-4-4-4---4---5-------------5---5-4~|-4-4-4---4---5-------------5---5-4~-|
|-2-2-2---2---3-----------3---------|-2-2-2---2---3-----------3----------|
|                                   |                                    |
|------------14---------------------|------------------------------------|
|------------17^--------------------|------------14----------------------|
|-----------------------------------|------------16^---------------------|
|-----------------------------------|------------------------------------|
|-----------------------------------|------------------------------------|
|-----------------------------------|------------------------------------|

|-----------------------------------|-------
|-----------------------------------|-------
|-----------------------------------|-------
|---------4-------------------5-----|-------
|-------4---4-------------------5-4~|-------
|-2---2-------3~--------3-2-3-------|-----...repeat


NO SOLO
Composição de Tony Iommi
Colaboração e revisão:
  • Cássio Costa
1.476 exibições
    • ½ Tom
    • A
    • Bb
    • B
    • C
    • Db
    • D
    • Eb
    • E
    • F
    • F#
    • G
    • Ab
  • Adicionar à lista

    0 comentários

    Ver todos os comentários

    Conseguiu tocar?

    0 Tocaram 0 Ainda não

    Grave um vídeo tocando Time Is Mine e nos envie!

    00:00 / 00:00
    outros vídeos desta música
    repetir qualidade Automático
    Outros vídeos desta música
    00:00 / 00:00
    Automático

    Cifra Club Pro

    Aproveite o Cifra Club com benefícios exclusivos e sem anúncios
    Cifra Club Pro
    Aproveite o Cifra Club com benefícios exclusivos e sem anúncios
    OK