Cifra Club

Deus da Aliança

Ministério Apascentar de Louvor (Toque No Altar)

Cifra: Principal (violão e guitarra)
tom: G
E|------------------------------------------------------|  
B|-8/10-8-6-8-----5-6-6/8-8-8-8-6-5---------------------| 
G|-------------7---------------------5------------------|  
D|------------------------------------------------------|  
A|------------------------------------------------------|  
E|------------------------------------------------------|  

E|----------------------------------8-7-5---------------|  
B|-8/10-8-6-8------5-6-6/8-8-8-8------------------------|  
G|--------------7---------------------------------------|  
D|------------------------------------------------------|  
A|------------------------------------------------------|  
E|------------------------------------------------------|  

E|-5-7-8--12--5-5--7----7-8-10-13-12---10--8-7-8--------|  
B|------------------------------------------------------|  
G|------------------------------------------------------|  
D|------------------------------------------------------|  
A|------------------------------------------------------|  
E|------------------------------------------------------|  

E|-8-7-8--15--8--8-10--12-12--10------------------------| 
B|------------------------------------------------------| 
G|------------------------------------------------------| 
D|------------------------------------------------------| 
A|------------------------------------------------------| 
E|------------------------------------------------------| 

E|-8-7-8--15--8--13-12---8--10-10-10-10-10--------------| 
B|------------------------------------------------------| 
G|------------------------------------------------------| 
D|------------------------------------------------------| 
A|------------------------------------------------------| 
E|------------------------------------------------------| 

E|------8-7-8---------8-7-8--------8--12-12-13-10--8-10-| 
B|-8-8-----------8-8----------8-8-----------------------| 
G|------------------------------------------------------| 
D|------------------------------------------------------| 
A|------------------------------------------------------| 
E|------------------------------------------------------| 

E|------8-7-8---------8-10-12-8---8-12-12-13-10-10-8-10-| 
B|-8-8--------8--8-8------------8-----------------------| 
G|------------------------------------------------------| 
D|------------------------------------------------------| 
A|------------------------------------------------------| 
E|------------------------------------------------------| 

E|--8-8--10---7-5-3-5-----8-8-8---10-10--7--8-----------| 
B|------------------------------------------------------| 
G|------------------------------------------------------| 
D|------------------------------------------------------| 
A|------------------------------------------------------| 
E|------------------------------------------------------| 

E|--8-8-8------10-10---12-13-12--10----8----------------|
B|------------------------------------------------------| 
G|------------------------------------------------------| 
D|------------------------------------------------------| 
A|------------------------------------------------------| 
E|------------------------------------------------------| 

E|--8-8--10---7-5-3-5-----8-8-8---10-10--7--8-----------| 
B|------------------------------------------------------| 
G|------------------------------------------------------| 
D|------------------------------------------------------|
A|------------------------------------------------------| 
E|------------------------------------------------------| 

E|--8-8-8---10-10--12-13-12--10-8----5-8--12-10---|

00:00 / 00:00
Outros vídeos desta música
Repetir
Outros vídeos desta música
Compositor não encontrado.
Colaboração e revisão:
  • Nelson Francisco
6.396 exibições
    • ½ Tom
    • A
    • Bb
    • B
    • C
    • Db
    • D
    • Eb
    • E
    • F
    • F#
    • G
    • Ab
  • Adicionar à lista

    0 comentários

    Ver todos os comentários

    Entre para oCifra Club PRO

    Tenha acesso a benefícios exclusivos no App e no Site

    • Chega de anúncios

    • Prioridade de compra em lançamentos

    • Mais recursos no app do Afinador

    • Atendimento Prioritário

    • Descontos nos produtos Cifra Club

    • Ajude a produzir mais conteúdo

    00:00 / 00:00

    Cifra Club Pro

    Aproveite o Cifra Club com benefícios exclusivos e sem anúncios
    Cifra Club Pro
    Aproveite o Cifra Club com benefícios exclusivos e sem anúncios
    OK