Cifra Club

Aprenda

Marca da Promessa

Trazendo a Arca

Cifra: Versão 7 (violão e guitarra)
tom: E
Intro:Fm       D#            C#

(1ª vez sem bateria),só a guitarra!
E|------------------------------------------------------|
B|------------------------------------------------------|
G|---1010--x-10--8-8--8-x-x-x-x-6-6--x-6----6-6-x-x-x-x-|
D|---8-8---x-8---8-8--8-x-x-x-x-6-6--x-6----6-6-x-x-x-x-|
A|---8-8---x-8---6-6--6-x-x-x-x-4-4--x-4----4-4-x-x-x-x-|
E|----------------------------------------4-------------|
        Fm        D#            C#

E|------------------------------------------------------|
B|------------------------------------------------------|
G|---1010--x-10--8-8--8-x-x-x-x-6-6--x-6----6-6-x-x-x-x-|
D|---8-8---x-8---8-8--8-x-x-x-x-6-6--x-6----6-6-x-x-x-x-|
A|---8-8---x-8---6-6--6-x-x-x-x-4-4--x-4----4-4-x-x-x-x-|
E|----------------------------------------4-------------|

       Fm         D#            C#

E|------------------------------------------------------|
B|------------------------------------------------------|
G|---1010--x-10--8-8--8-x-x-x-x-6-6--x-6----6-6-x-x--6--|
D|---8-8---x-8---8-8--8-x-x-x-x-6-6--x-6----6-6-x-x--6--|
A|---8-8---x-8---6-6--6-x-x-x-x-4-4--x-4----4-4-x-x--4--|
E|----------------------------------------4-------------|
Obs:x na tab; É nota abafada!

Fm7             D#/G
Nenhum segundo eu quero mais viver sem ti senhor
C#7M            C#7M(9/13)            Bbm7
Pois muito tempo já perdi longe do teu amor
              G#               D#add9
E agora conto as horas para poder te encontrar
              C7
Eu descobri que ao teu lado é meu lugar
  Fm7                  D#/G            C#7M
Há,   e agora noite e dia ansioso eu espero por ti
          C#7M(9/13)             Bbm7
Reúno minhas forças e corro para te seguir
             G#            C7
De viver tua vontade nada mais me impedirá
                 Fm7
No tempo eu já não quero parar

     Bb/D       C#add9       C7/E              Fm
Eu quero ir, mais além, pois a eternidade eu quero alcançar
     Bb/D    C#add9     C7/E               Fm
Vou me deixar conduzir,  no  tempo eu já não quero parar
     Bb/D       C#add9       C7/E              Fm
Eu quero ir, mais além, pois a eternidade eu quero alcançar
     Bb/D    C#add9     C7/E               Fm
Vou me deixar conduzir,  no  tempo eu já não quero parar

           Fm/D#                C#7M
(Hoje quero ser feliz e viver ao lado teu)
            C7             Fm
Consumir a minha vida por ti, oh amado meu
           Fm/D#                 C#7M
(Nada pode me deter,   tempo não vou mais perder)
              C7            Fm
E agora eu sei que no tempo eu já quero parar
     Bb/D       C#add9       C7/E              Fm
Eu quero ir, mais além, pois a eternidade eu quero alcançar
     Bb/D    C#add9     C7/E               Fm
Vou me deixar conduzir,  no  tempo eu já não quero parar
     Bb/D       C#add9       C7/E              Fm
Eu quero ir, mais além, pois a eternidade eu quero alcançar
     Bb/D    C#add9     C7/E
Vou me deixar conduzir,  no  tempo eu já não quero parar

   Fm           D#             C#   (C#5 C5) Fm D#/G

E|------------------------------------------------|
B|------------------------------------------------|
G|-1010--x-10--8-8--8-x-x-x-x-6-6-----------------|
D|-8-8---x-8---8-8--8-x-x-x-x-6-6-x-6---5---------|
A|-8-8---x-8---6-6--6-x-x-x-x-4-4-x-4---3---3--6--|
E|----------------------------------------4-1--3--|

Aqui modula para Ab7M:

G#7M                        Fm7
Eu me entreguei e me lancei nesse amor
                   C#7M
Já não da mais para voltar, olhar pra trás
          G#        D#/G
Prisioneiro eu sou do teu amor
G#7M                 Fm7
Em meio a noite eu dançarei

Na tempestade eu cantarei
    C#7m                G#       D#/G

Sou teu senhor, inteiramente teu
Bbm7        Cm7
Nada no mundo pode calar
Bb7(9)/D
Toda a alegria que tú me dás
 C#7M                         Bbm7 Bbm7/G#  D#7/9

Resta-meagorasaídochãoece|----le|Resta-me agora saí do chão e c------brar
        C#7M    G#/C
Sei que tudo pas----sa
 Fm7       D#/G    G#
Só Deus é que não passará
  G#7 C#7M      G#/C
Com sua  for----ça
   Fm7        D#/G   G#

Eu posso tudo suportar
 G#7  C#7M     G#/C
Nada me fal----ta
   Fm7     D#/G    G#
Pois nele tudo encontrei
  G#7 C#7M     G#/C
Com sua grã----ça
 Fm7      D#/G   G#
Hoje pro céu caminharei

Solo 1:    C#7M      G#/C          Fm7     D#/G  G#


E|-------------6--------4~~-----------------------------16-|
B|------4---6~~6b(7)r(6)4~~---------------------11-1313(13)|
G|----5------------------------------------8/13------------|
D|-/6-----------------------8b(9)r(8)8-6-6-----------------|
A|---------------------------------------------------------|
E|---------------------------------------------------------|
E|---------------------------------------------------------|

     G#7      C#7M           G#/C        F#7/13

E|-------11----13~--13b(14)r(13)11~~--18/20---23-------------|
B|----13-----------------------------------------21p19-21p19-|
G|-13--------------------------------------------------------|
D|-----------------------------------------------------------|
A|-----------------------------------------------------------|
E|-----------------------------------------------------------|

     C#7/9                          G#

E|---------------------------------------------------------|
B|---------------------------------------------------------|
G|-20p18-18h20-20p18h20p18---------------------------------|
D|-------------------------21-18-21--18~~------------------|
A|---------------------------------------------------------|
E|---------------------------------------------------------|

        C#7M    G#/C
Sei que tudo pas----sa
 Fm7       D#/G    G#
Só Deus é que não passará
  G#7 C#7M      G#/C
Com sua  for----ça
   F#7/13    C#7     G#

Eu posso tudo suportar
 G#7  C#7M     G#/C
Nada me fal----ta
   Fm7     D#/G    G#
Pois nele tudo encontrei
  G#7 C#7M     G#/C
Com sua grã----ça
F#7/13     C#7    G#
Hoje pro céu caminharei
F#7/13     C#7    G#
Hoje pro céu caminharei
F#7/13     C#7    F#
Hoje pro céu caminharei

Solo 2:F# B G#  C#  G#  B G#

Guitarra usando wah,wah!
E|----------------------------------------------|
B|----------------------------------------------|
G|----------------------------------------------|
D|----------------------------------------------|
A|----2----------4-2-------2----2---------------|
E|-2-----4-2-3-4-----4-2-4---4-4--4-2-4---------|

   G#5        B5   G# (C#5 F#5 G5 G#5)    B5


E|----------------------------------------------|
B|----------------------------------------------|
G|-----------4-4b(5)---6------------12----------|
D|-------4-6---------6---4-5-6--/13----13-11-13-|
A|-6-6-6----------------------------------------|
E|----------------------------------------------|

Aqui modula para Ebadd9  ;tom da mulher:

Intro:

   D#add9    Bb            Cm7     G#

E|---------------------------------------------|
B|-------------------------4-4-3-3-4-4-4-4-4-3-|
G|---8-8-7-7-8-7-7--8-8-7--5-5-3-3-5-3-3-3-3-3-|
D|---8-8-8-8-8-8-8--8-8-8--5-5-5-5-5-5-5-5-5-5-|
A|---6-6-6-6-6-6-6--6-6-6----------------------|
E|---------------------------------------------|

     D#add9    Bb            G#

E|---------------------------------------------|
B|---------------------------------------------|
G|---8-8-7-7-8-7-7--8-8-7--4-4-4-4-4-----------|
D|---8-8-8-8-8-8-8--8-8-8--5-5-5-5-5-----------|duas vezes
A|---6-6-6-6-6-6-6--6-6-6--6-6-6-6-6-----------|toda a Intro!
E|---------------------------------------------|

D#add9     Bb       Cm7          G#         D#
Quanto tempo eu perdi     longe de ti amado meu
         Bb           G#
Quero hoje aproveitar cada instante pra te amar (bis)
     Fm7
As horas passam bem depressa não posso perder
   D#/G
Cada segundo é precioso para amar você
     G#7M
Eu vou seguindo o compasso do meu coração
   Cm7          Bbadd9
Que batendo apaixonado não perde tempo não
     Fm7
As horas passam bem depressa não posso perder
   D#/G
Cada segundo é precioso para amar você
     G#7M
Eu vou seguindo o compasso do meu coração
  Cm7            Bbadd9
Que bate     apaixonado

 D#add9
Meu Deus pra te amar só tenho hoje
   Bbadd9
Cada segundo, hora, dia é tudo para ti
       Fm7
Já não dá mais pra esperar eu tenho pressa
      G#
A cada instante eu quero viver só pra ti
 D#add9
Meu Deus pra te amar só tenho hoje
   Bbadd9
Cada segundo, hora, dia é tudo para ti
       Fm7
Já não dá mais pra esperar eu tenho pressa
      G#
A cada instante eu quero viver só pra ti

     D#add9    Bb            Cm7     G#

E|---------------------------------------------|
B|-------------------------4-4-3-3-4-4-4-4-4-3-|
G|---8-8-7-7-8-7-7--8-8-7--5-5-3-3-5-3-3-3-3-3-|
D|---8-8-8-8-8-8-8--8-8-8--5-5-5-5-5-5-5-5-5-5-|
A|---6-6-6-6-6-6-6--6-6-6----------------------|
E|---------------------------------------------|

     D#add9    Bb            G#

E|---------------------------------------------|
B|---------------------------------------------|
G|---8-8-7-7-8-7-7--8-8-7--4--4--4-------------|
D|---8-8-8-8-8-8-8--8-8-8--5--5--5-------------|
A|---6-6-6-6-6-6-6--6-6-6--6--6--6-------------|
E|---------------------------------------------|
Composição de Davi Sacer / Deco Rodrigues / Luiz Arcanjo / Ronald Fonseca
Colaboração e revisão:
  • Willian Candido
  • Érico Nogueira
  • Marquinhos Santos
27.511 exibições
    • ½ Tom
    • A
    • Bb
    • B
    • C
    • Db
    • D
    • Eb
    • E
    • F
    • F#
    • G
    • Ab
  • Adicionar à lista

    0 comentários

    Ver todos os comentários
    00:00 / 00:00
    Outros vídeos desta música
    Repetir Qualidade Automático
    Outros vídeos desta música
    00:00 / 00:00
    Automático

    Cifra Club Pro

    Aproveite o Cifra Club com benefícios exclusivos e sem anúncios
    Cifra Club Pro
    Aproveite o Cifra Club com benefícios exclusivos e sem anúncios
    OK