Cifra Club

Hino do Vasco da Gama

Vasco da Gama

Cifra: Principal
exibições 59.831
Tom: D#
Tom: Bb

(Introdução):
 Ab      Eb Cm F7   Bb7   Eb   Bb

(Introdução SOLO):

        Ab      Eb     Cm
--------10--8h10p8--10-8------------------
-8-----------------------11---------------
---10-8-----------------------------------
------------------------------------------
------------------------------------------
------------------------------------------

       F7   Bb7       Eb
------------------------------------------
-------8----6h8p6---6-8-------------------
-8-8-8------------8-----8-----------------
------------------------------------------
------------------------------------------
------------------------------------------

                     Bb
-------------6----------------------------
-----------8---8--------------------------
-8-8-8-5-8-------8------------------5-3---
------------------------------3-5-6-------
----------------------------6-------------
---------------------6-6-6----------------

                     Bb
-------------6----------------------------
-----------8---8------------------4-------
-8-8-8-5-8-------8--------------3---------
------------------------------5-----------
----------------------------6-------------
-----------------------6-6----------------




(1ª Parte):
       Eb       Bb7        Eb
Vamos todos cantar de coração
           Ab        C7     Fm
A cruz de malta é o meu pendão
                        C7          Fm
Tu tens o nome de um heróico português
          Bb       Ab            Eb/G
Vasco da Gama sua fama assim se fez

(2ª Parte):
      Eb       Db7          C7
Tua imensa torcida é bem feliz
       Fm        C7           Fm
Norte-sul Norte-sul deste Brasil
        Ab       Eb          Cm     F7   Bb7 Eb
Tua estrela    na terra a brilhar ilumina  o  mar

(Repete Introdução)

(3ª Parte) 2X:
   Eb                Fm       Bb7         Eb
No atletismo és um braço, no remo és imortal
    Cm             Fm        Bb7             Eb
No futebol és um traço de união Brasil-Portugal
Acordes para:
    Composição: Lamartine Babo (composto em 1949)Colaboração e revisão:
    • Henrique Cardoso
    • Daniel
    • Thalles Franco

    0 comentários

      mostrar mais comentários

      Conseguiu tocar?

      2tocaram0ainda não

      Grave um vídeo tocando Hino do Vasco da Gama e mande pra gente!

      00:00 / 00:00
      outros vídeos desta música
      repetirqualidadeautomática
      Outro vídeos desta música
        00:00 / 00:00
        automática
        OK