Cifra Club

Aprenda

Skyway Avenue

We The Kings

Cifra: Versão 5 (violão e guitarra)
tom: A
Tabbed by:Danny
Email:*

Tuning:Db Ab Db Gb Bb Eb

INTRO
Eb|-------10-----10------10-------------------10--10--7-8-7------|
Bb|-------7------7--------7----7-7-7-----------7---7---------10--|
Gb|--0-0-------0-----0-0-------7-7-7------0-0----0---------------|
Db|--------------------------------------------------------------|
Ab|--------------------------------------------------------------|
Db|--------------------------------------------------------------|

Eb|--------------------|
Bb|--------------------|
Gb|---5----------------|
Db|---5------5-----0---|
Ab|---3------5-----0---|
Db|----------5-----0---|x2

VERSE
Eb|--------------------|
Bb|--------------------|
Gb|----12---12---11----|
Db|----12---12---12----|
Ab|----10---10---9-----|
Db|----10--------------|x4
Pre-Chorus
e|------------------------|
B|------------------------|
G|-------12---------------|
D|---9---12---10---12-----|
A|---9---10---10---12-----|
E|---9--------10---12-----|x2
Chorus
Eb|----------------------|
Bb|----------------------|
Gb|------------------5---|
Db|----5----0----2---5---|
Ab|----5----0----2---3---|
Db|----5----0----2-------|x2
Post Chorus
Eb|---------------|
Bb|---------------|
Gb|--2---5--7-----|
Db|--2---5--7-----|
Ab|--0---3--5-----|
Db|---------------|


Verse
Prechorus
Chorus

Bridge
Eb|----------------|
Bb|----------------|
Gb|----------------|
Db|--2---5---5--0--|
Ab|--2---5---5--0--|
Db|--2---3---5--0--|x2

Intro
Chorus
Composição de Dave Katz / Sam Hollander / Travis Clark
1.096 exibições
    • ½ Tom
    • A
    • Bb
    • B
    • C
    • Db
    • D
    • Eb
    • E
    • F
    • F#
    • G
    • Ab
  • Adicionar à lista

    0 comentários

    Ver todos os comentários

    Conseguiu tocar?

    0 Tocaram 0 Ainda não

    Grave um vídeo tocando Skyway Avenue e nos envie!

    00:00 / 00:00
    Outros vídeos desta música
    Repetir Qualidade Automático
    Outros vídeos desta música
    00:00 / 00:00
    Automático

    Cifra Club Pro

    Aproveite o Cifra Club com benefícios exclusivos e sem anúncios
    Cifra Club Pro
    Aproveite o Cifra Club com benefícios exclusivos e sem anúncios
    OK