Cifra Club

Island In The Sun

Weezer

Cifra: Principal
exibições 153.523
Tom: G
Intro:

E|3--5--2--3--|
B|5--5--3--3--|
G|4--5--2--4--|
D|x-----0-----|
A|------------|
E|------------|

Intro: Em  Am  D  G 
       
Em Am D G
   When you are on a holiday
   You can't find the words to say
   All the things that comes to you
   And i wanna feel it too

E|-----------------------------------------------|
B|------8--8--10--10--7--7--8--8-----------------|
G|----9--9---9---9--7--7--7--7-------------------| 4x
D|-----------------------------------------------|
A|-----------------------------------------------|
E|-----------------------------------------------|

Em Am D G
   On an island in the sun
   We'll be playing and having fun
   And it makes me feel so fine
   I can't control my brain

( Em  Am  D  G )
    Hip Hip x2

Em Am D G
   When you are on a golden sea
   You don't need no memory
   Just a place to call your own
   As we drift into the zone

E|-----------------------------------------------|
B|------8--8--10--10--7--7--8--8-----------------|
G|----9--9---9---9--7--7--7--7-------------------| 4x
D|-----------------------------------------------|
A|-----------------------------------------------|
E|-----------------------------------------------|

Em Am D G
   On an island in the sun
   We'll be playing and having fun 
   And it makes me feel so fine 
   I can't control my brain

    D          G
   We'll run away...together  
   D           G
   We'll spend some time...forever
  C            A          D
  We'll never feel bad anymore                       

E|-----------------------------------------------|
B|------8--8--10--10--7--7--8--8-----------------|
G|----9--9---9---9--7--7--7--7-------------------| 4x
D|-----------------------------------------------|
A|-----------------------------------------------|
E|-----------------------------------------------|

Solo 2x:

E|-----------------------------------------------|
B|-----------------------------------------------|
G|----7--9--7--5--4--5--4------------------------|
D|--------------------------5--9--7--5--4-5--5---| 2x
A|-----------------------------------------------|
E|-----------------------------------------------|

E|-----------------------------------------------|
B|------8--8--10--10--7--7--8--8-----------------|
G|----9--9---9---9--7--7--7--7-------------------| 4x
D|-----------------------------------------------|
A|-----------------------------------------------|
E|-----------------------------------------------|

On an island in the sun
We'll be playin' and havin' fun
And it makes me feel so fine I can't control my brain

(Em Am D G)
We'll run away together
We'll spend some time forever
We'll never feel bad anymore

E|-----------------------------------------------|
B|------8--8--10--10--7--7--8--8-----------------|
G|----9--9---9---9--7--7--7--7-------------------|
D|-----------------------------------------------|
A|-----------------------------------------------|
E|-----------------------------------------------|
Hip hip X2
We'll never feel that anymore
Hip hip X2
We'll never feel that anymore
Hip hip X3
Acordes para:
    Composição: Rivers CuomoColaboração e revisão:

    0 comentários

      mostrar mais comentários

      Conseguiu tocar?

      40tocaram0ainda não

      Grave um vídeo tocando Island In The Sun e mande pra gente!

      00:00 / 00:00
      outros vídeos desta música
      repetirqualidadeautomática
      Outro vídeos desta música
        00:00 / 00:00
        automática
        OK