Cifra Club

Island In The Sun

Weezer

Cifra: Principal (violão e guitarra)
Selo Cifra Club: esta cifra foi revisada para atender aos critérios oficiais da nossa Equipe de Qualidade.
tom: G
[Intro] Em  Am  D  G 

   Em      Am           D              G
E|-3--3----5--5--5------2---2--2-------3--3--3--------|
B|-5--5----5--5--5------3---3--3-------3--3--3--------|
G|-4--4----5--5--5------2---2--2-------4--4--4--------|
D|----------------------------------------------------|
A|----------------------------------------------------|
E|----------------------------------------------------|

[Primeira Parte]
       
Em Am         D   G         Em  Am
     When you are on a holiday
           D        G        Em  Am
You can't find the words to say
         D           G        Em  Am
All the things that comes to you
       D      G       Em Am
And i wanna feel it too

E|-----------------------------------------------|
B|------8---8---8---8---7---7---8---8------------|
G|----9---9---9---9---7---7---7---7--------------| (4x)
D|-----------------------------------------------|
A|-----------------------------------------------|
E|-----------------------------------------------|

[Refrão]

   D     G           Em  Am
On an island in the sun 
           D          G      Em  Am   
We'll be playing and having fun 
        D        G       Em  
And it makes me feel so fine
   Am        D       G
I can't control my brain

( Em  Am  D  G )
( Em  Am  D  G )

[Segunda Parte]

Em Am         D   G            Em  Am
     When you are on a golden sea
           D       G   Em  Am
You don't need no memory
         D       G        Em   Am
Just a place to call your own
        D      G      Em   Am
As we drift into the zone

E|-----------------------------------------------|
B|------8---8---8---8---7---7---8---8------------|
G|----9---9---9---9---7---7---7---7--------------| (4x)
D|-----------------------------------------------|
A|-----------------------------------------------|
E|-----------------------------------------------|

[Refrão]

   D     G           Em  Am
On an island in the sun 
           D          G      Em  Am   
We'll be playing and having fun 
        D        G       Em  
And it makes me feel so fine
   Am        D       G
I can't control my brain

[Ponte]

D            G
 We'll run away together  
D                  G
 We'll spend some time forever
 C            A          D
We'll never feel bad anymore 

( Em  Am  D  G ) 
( Em  Am  D  G ) 

[Solo] Em  Am  D  G 
       Em  Am  D  G                    

E|-----------------------------------------------|
B|-----------------------------------------------|
G|----7--9--7--5--4--5--4------------------------|
D|--------------------------5--9--7--5--4-5--5---| (2x)
A|-----------------------------------------------|
E|-----------------------------------------------|

E|-----------------------------------------------|
B|------8---8---8---8---7---7---8---8------------|
G|----9---9---9---9---7---7---7---7--------------| (4x)
D|-----------------------------------------------|
A|-----------------------------------------------|
E|-----------------------------------------------|

[Refrão]

   D     G           Em  Am
On an island in the sun 
           D          G      Em  Am   
We'll be playing and having fun 
        D        G       Em  
And it makes me feel so fine
   Am        D       G
I can't control my brain

[Ponte]

D            G
 We'll run away together  
D                  G
 We'll spend some time forever
 C            Am          D
We'll never feel bad anymore 

( Em  Am  D  G ) 
( Em  Am  D  G )
( Em  Am  D  G )
( Em  Am  D  G )

E|-----------------------------------------------|
B|------8---8---8---8---7---7---8---8------------|
G|----9---9---9---9---7---7---7---7--------------| (4x)
D|-----------------------------------------------|
A|-----------------------------------------------|
E|-----------------------------------------------|
Outros vídeos desta música
225.792 exibições
    • ½ Tom
    • A
    • Bb
    • B
    • C
    • Db
    • D
    • Eb
    • E
    • F
    • F#
    • G
    • Ab
  • Adicionar à lista

Afinação da cifra

Afinador online

    0 comentários

    Ver todos os comentários

    Conseguiu tocar?

    68 Tocaram 0 Ainda não

    Grave um vídeo tocando Island In The Sun e nos envie!

    Toque também

    1. Imagem do artista Cake I Will Survive Cake
    2. Imagem do artista Jimmy Eat World The Middle Jimmy Eat World
    3. Imagem do artista Ben Folds Five Rain Drops Keep Falling Ben Folds Five
    4. Imagem do artista Ozma Korobeiniki Ozma

    Entre para o Cifra Club PRO

    Tenha acesso a benefícios exclusivos no App e no Site

    • Chega de anúncios

    • Mais recursos no app do Afinador

    • Atendimento Prioritário

    • Aumente seu limite de lista

    • Ajude a produzir mais conteúdo

    Cifra Club Pro

    Aproveite o Cifra Club com benefícios exclusivos e sem anúncios
    Cifra Club Pro
    Aproveite o Cifra Club com benefícios exclusivos e sem anúncios
    OK