Notificações Amigos pendentes

      Weezer

      Island In The Sun

      140.256 exibições
      Tom: G
      Intro:
      
      
      E|3--5--2--3--|
      B|5--5--3--3--|
      G|4--5--2--4--|
      D|x-----0-----|
      A|------------|
      E|------------|
      
      
      Intro: Em  Am  D  G 
             
      Em Am D G
         When you are on a holiday
         You can't find the words to say
         All the things that comes to you
         And i wanna feel it too
      
      
      E|-----------------------------------------------|
      B|------8--8--10--10--7--7--8--8-----------------|
      G|----9--9---9---9--7--7--7--7-------------------| 4x
      D|-----------------------------------------------|
      A|-----------------------------------------------|
      E|-----------------------------------------------|
      
      
      Em Am D G
         On an island in the sun
         We'll be playing and having fun
         And it makes me feel so fine
         I can't control my brain
      
      ( Em  Am  D  G )
          Hip Hip x2
      
      Em Am D G
         When you are on a golden sea
         You don't need no memory
         Just a place to call your own
         As we drift into the zone
      
      
      E|-----------------------------------------------|
      B|------8--8--10--10--7--7--8--8-----------------|
      G|----9--9---9---9--7--7--7--7-------------------| 4x
      D|-----------------------------------------------|
      A|-----------------------------------------------|
      E|-----------------------------------------------|
      
      
      Em Am D G
         On an island in the sun
         We'll be playing and having fun 
         And it makes me feel so fine 
         I can't control my brain
      
          D          G
         We'll run away...together  
         D           G
         We'll spend some time...forever
        C            A          D
        We'll never feel bad anymore                       
      
      
      E|-----------------------------------------------|
      B|------8--8--10--10--7--7--8--8-----------------|
      G|----9--9---9---9--7--7--7--7-------------------| 4x
      D|-----------------------------------------------|
      A|-----------------------------------------------|
      E|-----------------------------------------------|
      
      
      Solo 2x:
      
      
      E|-----------------------------------------------|
      B|-----------------------------------------------|
      G|----7--9--7--5--4--5--4------------------------|
      D|--------------------------5--9--7--5--4-5--5---| 2x
      A|-----------------------------------------------|
      E|-----------------------------------------------|
      
      
      E|-----------------------------------------------|
      B|------8--8--10--10--7--7--8--8-----------------|
      G|----9--9---9---9--7--7--7--7-------------------| 4x
      D|-----------------------------------------------|
      A|-----------------------------------------------|
      E|-----------------------------------------------|
      
      
      On an island in the sun
      We'll be playin' and havin' fun
      And it makes me feel so fine I can't control my brain
      
      (Em Am D G)
      We'll run away together
      We'll spend some time forever
      We'll never feel bad anymore
      
      
      E|-----------------------------------------------|
      B|------8--8--10--10--7--7--8--8-----------------|
      G|----9--9---9---9--7--7--7--7-------------------|
      D|-----------------------------------------------|
      A|-----------------------------------------------|
      E|-----------------------------------------------|
      
      Hip hip X2
      We'll never feel that anymore
      Hip hip X2
      We'll never feel that anymore
      Hip hip X3
        Composição: Rivers CuomoColaboração e revisão:
        • Marcelle
        • Kbeça
        • Tiago
        • josepe
        • Boddah
        • +1

        Comentários 16

        140 .
        • Tia do Tia do: Em 26/12/2015 23:59

          well never feel bad anymore
          C Am D

        • allanpitanga allanpitanga: Em 24/06/2013 23:36

          Em: b b c;
          Am: b b;
          D: c c b c;
          G: b (b c);
          Eu toquei assim e acho que ficou bem legal =)

        • willick98 willick98: Em 04/06/2013 16:04

          auguem sabe o ritimo serto da musica jQuery17207733359940487231_1370372520103?

        • willick98 willick98: Em 04/06/2013 16:04

          auguem sabe o ritimo serto da musica jQuery17207733359940487231_1370372520092?

        • willick98 willick98: Em 04/06/2013 16:03

          auguem sabe o ritimo serto da musica jQuery17207733359940487231_1370372520083?

        • Eduardo Eduardo: Em 01/03/2013 12:05

          cara sempre achei que fosse só Em7,A5 e Bm7 e volta dps,no começo

        • m_fernandes m_fernandes: Em 04/09/2012 20:30

          tentei baixo baixo cima e deu certo (:
          no refrão baixo baixo baixo baixo no D e baixo cima baixo no G
          só a ultima linha q ta tenso

        • lanna_sevenfold lanna_sevenfold: Em 22/06/2012 20:41

          Gente como é a batida? alguem sabe -q :S

          • espinhao espinhao: Em 04/12/2012 07:41

            eu acho que a batida 2 pra cima uma levando de baxio pra cima do começo

          • Manoel Manoel: Em 14/10/2013 13:08

            Ritmo da batida é ... \/ \| /\ \/ \| /\ /\ \| /\ \/ \l ..... ( isso aqui \| ..é tocando abafando)
            fica assim ... Em (1 pra baixo , 1 par

        140 cancelar

        conseguiu tocar?

        • •••

        covers

        Grave um vídeo tocando Island In The Sun e mande pra gente!

        Ex.: http://www.youtube.com/watch?v=0IvSvIwGdwk
        ver covers de outras músicas »
        0:00 / 0:00

        Capítulos

          1 versão de violão dificuldade exibições contribuição e correção
          1 versão de guitarra dificuldade exibições contribuição e correção
          1 versão de cavaco dificuldade exibições contribuição e correção
          1 versão de teclado dificuldade exibições contribuição e correção
          3 versões de baixo exibições contribuição e correção
          1 versão de bateria exibições contribuição e correção
          1 versão de partiturasformatodownloadscontribuição
          play/pausefechar subir/descer velocidade
          6ª corda E5ª corda A4ª corda D3ª corda G2ª corda B1ª corda E
            acordes
            publicidade
            fechar
            ok